  0
SECTION
  2
HEADER
  9
$ACADVER
  1
AC1027
  9
$ACADMAINTVER
 70
   105
  9
$DWGCODEPAGE
  3
ANSI_1251
  9
$REQUIREDVERSIONS
160
                 0
  9
$INSBASE
 10
0.0
 20
0.0
 30
0.0
  9
$EXTMIN
 10
-83.0
 20
-61.44236125273291
 30
0.0
  9
$EXTMAX
 10
412.0015585507062
 20
85.5576387472247
 30
0.0
  9
$LIMMIN
 10
0.0
 20
0.0
  9
$LIMMAX
 10
420.0
 20
297.0
  9
$ORTHOMODE
 70
     0
  9
$REGENMODE
 70
     1
  9
$FILLMODE
 70
     1
  9
$QTEXTMODE
 70
     0
  9
$MIRRTEXT
 70
     1
  9
$LTSCALE
 40
1.0
  9
$ATTMODE
 70
     1
  9
$TEXTSIZE
 40
2.5
  9
$TRACEWID
 40
1.0
  9
$TEXTSTYLE
  7
Standard
  9
$CLAYER
  8
0
  9
$CELTYPE
  6
ByLayer
  9
$CECOLOR
 62
   256
  9
$CELTSCALE
 40
1.0
  9
$DISPSILH
 70
     0
  9
$DIMSCALE
 40
1.0
  9
$DIMASZ
 40
2.5
  9
$DIMEXO
 40
0.625
  9
$DIMDLI
 40
3.75
  9
$DIMRND
 40
0.0
  9
$DIMDLE
 40
0.0
  9
$DIMEXE
 40
1.25
  9
$DIMTP
 40
0.0
  9
$DIMTM
 40
0.0
  9
$DIMTXT
 40
2.5
  9
$DIMCEN
 40
2.5
  9
$DIMTSZ
 40
0.0
  9
$DIMTOL
 70
     0
  9
$DIMLIM
 70
     0
  9
$DIMTIH
 70
     0
  9
$DIMTOH
 70
     0
  9
$DIMSE1
 70
     0
  9
$DIMSE2
 70
     0
  9
$DIMTAD
 70
     1
  9
$DIMZIN
 70
     8
  9
$DIMBLK
  1

  9
$DIMASO
 70
     1
  9
$DIMSHO
 70
     1
  9
$DIMPOST
  1

  9
$DIMAPOST
  1

  9
$DIMALT
 70
     0
  9
$DIMALTD
 70
     3
  9
$DIMALTF
 40
0.03937007874016
  9
$DIMLFAC
 40
1.0
  9
$DIMTOFL
 70
     1
  9
$DIMTVP
 40
0.0
  9
$DIMTIX
 70
     0
  9
$DIMSOXD
 70
     0
  9
$DIMSAH
 70
     0
  9
$DIMBLK1
  1

  9
$DIMBLK2
  1

  9
$DIMSTYLE
  2
ISO-25
  9
$DIMCLRD
 70
     0
  9
$DIMCLRE
 70
     0
  9
$DIMCLRT
 70
     0
  9
$DIMTFAC
 40
1.0
  9
$DIMGAP
 40
0.625
  9
$DIMJUST
 70
     0
  9
$DIMSD1
 70
     0
  9
$DIMSD2
 70
     0
  9
$DIMTOLJ
 70
     0
  9
$DIMTZIN
 70
     8
  9
$DIMALTZ
 70
     0
  9
$DIMALTTZ
 70
     0
  9
$DIMUPT
 70
     0
  9
$DIMDEC
 70
     2
  9
$DIMTDEC
 70
     2
  9
$DIMALTU
 70
     2
  9
$DIMALTTD
 70
     3
  9
$DIMTXSTY
  7
Standard
  9
$DIMAUNIT
 70
     0
  9
$DIMADEC
 70
     0
  9
$DIMALTRND
 40
0.0
  9
$DIMAZIN
 70
     0
  9
$DIMDSEP
 70
    44
  9
$DIMATFIT
 70
     3
  9
$DIMFRAC
 70
     0
  9
$DIMLDRBLK
  1

  9
$DIMLUNIT
 70
     2
  9
$DIMLWD
 70
    -2
  9
$DIMLWE
 70
    -2
  9
$DIMTMOVE
 70
     0
  9
$DIMFXL
 40
1.0
  9
$DIMFXLON
 70
     0
  9
$DIMJOGANG
 40
0.7853981633974483
  9
$DIMTFILL
 70
     0
  9
$DIMTFILLCLR
 70
     0
  9
$DIMARCSYM
 70
     0
  9
$DIMLTYPE
  6

  9
$DIMLTEX1
  6

  9
$DIMLTEX2
  6

  9
$DIMTXTDIRECTION
 70
     0
  9
$LUNITS
 70
     2
  9
$LUPREC
 70
     4
  9
$SKETCHINC
 40
1.0
  9
$FILLETRAD
 40
10.0
  9
$AUNITS
 70
     0
  9
$AUPREC
 70
     0
  9
$MENU
  1
.
  9
$ELEVATION
 40
0.0
  9
$PELEVATION
 40
0.0
  9
$THICKNESS
 40
0.0
  9
$LIMCHECK
 70
     0
  9
$CHAMFERA
 40
0.0
  9
$CHAMFERB
 40
0.0
  9
$CHAMFERC
 40
0.0
  9
$CHAMFERD
 40
0.0
  9
$SKPOLY
 70
     0
  9
$TDCREATE
 40
2458520.515083148
  9
$TDUCREATE
 40
2458520.390083148
  9
$TDUPDATE
 40
2458520.515085995
  9
$TDUUPDATE
 40
2458520.390085995
  9
$TDINDWG
 40
0.0000000116
  9
$TDUSRTIMER
 40
0.0000000116
  9
$USRTIMER
 70
     1
  9
$ANGBASE
 50
0.0
  9
$ANGDIR
 70
     0
  9
$PDMODE
 70
     0
  9
$PDSIZE
 40
0.0
  9
$PLINEWID
 40
0.0
  9
$SPLFRAME
 70
     0
  9
$SPLINETYPE
 70
     6
  9
$SPLINESEGS
 70
     8
  9
$HANDSEED
  5
5A2
  9
$SURFTAB1
 70
     6
  9
$SURFTAB2
 70
     6
  9
$SURFTYPE
 70
     6
  9
$SURFU
 70
     6
  9
$SURFV
 70
     6
  9
$UCSBASE
  2

  9
$UCSNAME
  2

  9
$UCSORG
 10
0.0
 20
0.0
 30
0.0
  9
$UCSXDIR
 10
1.0
 20
0.0
 30
0.0
  9
$UCSYDIR
 10
0.0
 20
1.0
 30
0.0
  9
$UCSORTHOREF
  2

  9
$UCSORTHOVIEW
 70
     0
  9
$UCSORGTOP
 10
0.0
 20
0.0
 30
0.0
  9
$UCSORGBOTTOM
 10
0.0
 20
0.0
 30
0.0
  9
$UCSORGLEFT
 10
0.0
 20
0.0
 30
0.0
  9
$UCSORGRIGHT
 10
0.0
 20
0.0
 30
0.0
  9
$UCSORGFRONT
 10
0.0
 20
0.0
 30
0.0
  9
$UCSORGBACK
 10
0.0
 20
0.0
 30
0.0
  9
$PUCSBASE
  2

  9
$PUCSNAME
  2

  9
$PUCSORG
 10
0.0
 20
0.0
 30
0.0
  9
$PUCSXDIR
 10
1.0
 20
0.0
 30
0.0
  9
$PUCSYDIR
 10
0.0
 20
1.0
 30
0.0
  9
$PUCSORTHOREF
  2

  9
$PUCSORTHOVIEW
 70
     0
  9
$PUCSORGTOP
 10
0.0
 20
0.0
 30
0.0
  9
$PUCSORGBOTTOM
 10
0.0
 20
0.0
 30
0.0
  9
$PUCSORGLEFT
 10
0.0
 20
0.0
 30
0.0
  9
$PUCSORGRIGHT
 10
0.0
 20
0.0
 30
0.0
  9
$PUCSORGFRONT
 10
0.0
 20
0.0
 30
0.0
  9
$PUCSORGBACK
 10
0.0
 20
0.0
 30
0.0
  9
$USERI1
 70
     0
  9
$USERI2
 70
     0
  9
$USERI3
 70
     0
  9
$USERI4
 70
     0
  9
$USERI5
 70
     0
  9
$USERR1
 40
0.0
  9
$USERR2
 40
0.0
  9
$USERR3
 40
0.0
  9
$USERR4
 40
0.0
  9
$USERR5
 40
0.0
  9
$WORLDVIEW
 70
     1
  9
$SHADEDGE
 70
     3
  9
$SHADEDIF
 70
    70
  9
$TILEMODE
 70
     1
  9
$MAXACTVP
 70
    64
  9
$PINSBASE
 10
0.0
 20
0.0
 30
0.0
  9
$PLIMCHECK
 70
     0
  9
$PEXTMIN
 10
1.000000000000000E+20
 20
1.000000000000000E+20
 30
1.000000000000000E+20
  9
$PEXTMAX
 10
-1.000000000000000E+20
 20
-1.000000000000000E+20
 30
-1.000000000000000E+20
  9
$PLIMMIN
 10
0.0
 20
0.0
  9
$PLIMMAX
 10
420.0
 20
297.0
  9
$UNITMODE
 70
     0
  9
$VISRETAIN
 70
     1
  9
$PLINEGEN
 70
     0
  9
$PSLTSCALE
 70
     1
  9
$TREEDEPTH
 70
  3020
  9
$CMLSTYLE
  2
Standard
  9
$CMLJUST
 70
     0
  9
$CMLSCALE
 40
20.0
  9
$PROXYGRAPHICS
 70
     1
  9
$MEASUREMENT
 70
     1
  9
$CELWEIGHT
370
    -1
  9
$ENDCAPS
280
     0
  9
$JOINSTYLE
280
     0
  9
$LWDISPLAY
290
     0
  9
$INSUNITS
 70
     4
  9
$HYPERLINKBASE
  1

  9
$STYLESHEET
  1

  9
$XEDIT
290
     1
  9
$CEPSNTYPE
380
     0
  9
$PSTYLEMODE
290
     1
  9
$FINGERPRINTGUID
  2
{BF90F7E3-EFED-4EE4-937A-3773C5DFD8AD}
  9
$VERSIONGUID
  2
{FAEB1C32-E019-11D5-929B-00C0DF256EC4}
  9
$EXTNAMES
290
     1
  9
$PSVPSCALE
 40
0.0
  9
$OLESTARTUP
290
     0
  9
$SORTENTS
280
   127
  9
$INDEXCTL
280
     0
  9
$HIDETEXT
280
     1
  9
$XCLIPFRAME
280
     2
  9
$HALOGAP
280
     0
  9
$OBSCOLOR
 70
   257
  9
$OBSLTYPE
280
     0
  9
$INTERSECTIONDISPLAY
280
     0
  9
$INTERSECTIONCOLOR
 70
   257
  9
$DIMASSOC
280
     2
  9
$PROJECTNAME
  1

  9
$CAMERADISPLAY
290
     0
  9
$LENSLENGTH
 40
50.0
  9
$CAMERAHEIGHT
 40
0.0
  9
$STEPSPERSEC
 40
2.0
  9
$STEPSIZE
 40
6.0
  9
$3DDWFPREC
 40
2.0
  9
$PSOLWIDTH
 40
5.0
  9
$PSOLHEIGHT
 40
80.0
  9
$LOFTANG1
 40
1.570796326794897
  9
$LOFTANG2
 40
1.570796326794897
  9
$LOFTMAG1
 40
0.0
  9
$LOFTMAG2
 40
0.0
  9
$LOFTPARAM
 70
     7
  9
$LOFTNORMALS
280
     1
  9
$LATITUDE
 40
37.795
  9
$LONGITUDE
 40
-122.394
  9
$NORTHDIRECTION
 40
0.0
  9
$TIMEZONE
 70
 -8000
  9
$LIGHTGLYPHDISPLAY
280
     1
  9
$TILEMODELIGHTSYNCH
280
     1
  9
$CMATERIAL
347
44
  9
$SOLIDHIST
280
     0
  9
$SHOWHIST
280
     1
  9
$DWFFRAME
280
     2
  9
$DGNFRAME
280
     2
  9
$REALWORLDSCALE
290
     1
  9
$INTERFERECOLOR
 62
   256
  9
$CSHADOW
280
     0
  9
$SHADOWPLANELOCATION
 40
0.0
  0
ENDSEC
  0
SECTION
  2
CLASSES
  0
CLASS
  1
ACDBDICTIONARYWDFLT
  2
AcDbDictionaryWithDefault
  3
ObjectDBX Classes
 90
        0
 91
        3
280
     0
281
     0
  0
CLASS
  1
VISUALSTYLE
  2
AcDbVisualStyle
  3
ObjectDBX Classes
 90
     4095
 91
        3
280
     0
281
     0
  0
CLASS
  1
MATERIAL
  2
AcDbMaterial
  3
ObjectDBX Classes
 90
     1153
 91
        3
280
     0
281
     0
  0
CLASS
  1
SCALE
  2
AcDbScale
  3
ObjectDBX Classes
 90
     1153
 91
        3
280
     0
281
     0
  0
CLASS
  1
TABLESTYLE
  2
AcDbTableStyle
  3
ObjectDBX Classes
 90
     4095
 91
        3
280
     0
281
     0
  0
CLASS
  1
MLEADERSTYLE
  2
AcDbMLeaderStyle
  3
ACDB_MLEADERSTYLE_CLASS
 90
     4095
 91
        3
280
     0
281
     0
  0
CLASS
  1
SUN
  2
AcDbSun
  3
SCENEOE
 90
     1153
 91
        3
280
     0
281
     0
  0
CLASS
  1
DICTIONARYVAR
  2
AcDbDictionaryVar
  3
ObjectDBX Classes
 90
        0
 91
        3
280
     0
281
     0
  0
CLASS
  1
CELLSTYLEMAP
  2
AcDbCellStyleMap
  3
ObjectDBX Classes
 90
     1152
 91
        3
280
     0
281
     0
  0
ENDSEC
  0
SECTION
  2
TABLES
  0
TABLE
  2
VPORT
  5
8
330
0
100
AcDbSymbolTable
 70
     1
  0
VPORT
  5
29
330
8
100
AcDbSymbolTableRecord
100
AcDbViewportTableRecord
  2
*Active
 70
     0
 10
0.0
 20
0.0
 11
1.0
 21
1.0
 12
164.5007792753531
 22
12.0576387472459
 13
0.0
 23
0.0
 14
10.0
 24
10.0
 15
10.0
 25
10.0
 16
0.0
 26
0.0
 36
1.0
 17
0.0
 27
0.0
 37
0.0
 40
149.9399999999567
 41
3.367357541162239
 42
50.0
 43
0.0
 44
0.0
 50
0.0
 51
0.0
 71
     0
 72
   100
 73
     1
 74
     3
 75
     0
 76
     0
 77
     0
 78
     0
281
     0
 65
     1
110
0.0
120
0.0
130
0.0
111
1.0
121
0.0
131
0.0
112
0.0
122
1.0
132
0.0
 79
     0
146
0.0
348
2F
 60
     3
 61
     5
292
     1
282
     1
141
0.0
142
0.0
 63
   250
361
6D
  0
ENDTAB
  0
TABLE
  2
LTYPE
  5
5
330
0
100
AcDbSymbolTable
 70
     3
  0
LTYPE
  5
14
330
5
100
AcDbSymbolTableRecord
100
AcDbLinetypeTableRecord
  2
ByBlock
 70
     0
  3

 72
    65
 73
     0
 40
0.0
  0
LTYPE
  5
15
330
5
100
AcDbSymbolTableRecord
100
AcDbLinetypeTableRecord
  2
ByLayer
 70
     0
  3

 72
    65
 73
     0
 40
0.0
  0
LTYPE
  5
16
330
5
100
AcDbSymbolTableRecord
100
AcDbLinetypeTableRecord
  2
Continuous
 70
     0
  3
Solid line
 72
    65
 73
     0
 40
0.0
  0
LTYPE
  5
70
330
5
100
AcDbSymbolTableRecord
100
AcDbLinetypeTableRecord
  2
K5LT_BASIC
 70
     0
  3

 72
    65
 73
     0
 40
0.0
  0
LTYPE
  5
BE
330
5
100
AcDbSymbolTableRecord
100
AcDbLinetypeTableRecord
  2
K5LT32768
 70
     0
  3

 72
    65
 73
     0
 40
0.0
  0
ENDTAB
  0
TABLE
  2
LAYER
  5
2
330
0
100
AcDbSymbolTable
 70
     2
  0
LAYER
  5
10
330
2
100
AcDbSymbolTableRecord
100
AcDbLayerTableRecord
  2
0
 70
     0
 62
     7
  6
Continuous
370
    -3
390
F
347
46
348
0
  0
LAYER
  5
6F
330
2
100
AcDbSymbolTableRecord
100
AcDbLayerTableRecord
  2
Системный слой
 70
     0
 62
     7
  6
Continuous
370
    -3
390
F
347
46
348
0
  0
ENDTAB
  0
TABLE
  2
STYLE
  5
3
330
0
100
AcDbSymbolTable
 70
     1
  0
STYLE
  5
11
330
3
100
AcDbSymbolTableRecord
100
AcDbTextStyleTableRecord
  2
Standard
 70
     0
 40
0.0
 41
1.0
 50
0.0
 71
     0
 42
2.5
  3
txt
  4

  0
ENDTAB
  0
TABLE
  2
VIEW
  5
6
330
0
100
AcDbSymbolTable
 70
     0
  0
ENDTAB
  0
TABLE
  2
UCS
  5
7
330
0
100
AcDbSymbolTable
 70
     0
  0
ENDTAB
  0
TABLE
  2
APPID
  5
9
330
0
100
AcDbSymbolTable
 70
     2
  0
APPID
  5
12
330
9
100
AcDbSymbolTableRecord
100
AcDbRegAppTableRecord
  2
ACAD
 70
     0
  0
APPID
  5
6E
330
9
100
AcDbSymbolTableRecord
100
AcDbRegAppTableRecord
  2
KOMPAS
 70
     0
  0
ENDTAB
  0
TABLE
  2
DIMSTYLE
  5
A
330
0
100
AcDbSymbolTable
 70
     1
100
AcDbDimStyleTable
  0
DIMSTYLE
105
27
330
A
100
AcDbSymbolTableRecord
100
AcDbDimStyleTableRecord
  2
ISO-25
 70
     0
 41
2.5
 42
0.625
 43
3.75
 44
1.25
 73
     0
 74
     0
 77
     1
 78
     8
140
2.5
141
2.5
143
0.03937007874016
147
0.625
171
     3
172
     1
178
     0
271
     2
272
     2
274
     3
278
    44
283
     0
284
     8
340
11
  0
ENDTAB
  0
TABLE
  2
BLOCK_RECORD
  5
1
330
0
100
AcDbSymbolTable
 70
    36
  0
BLOCK_RECORD
  5
1F
330
1
100
AcDbSymbolTableRecord
100
AcDbBlockTableRecord
  2
*Model_Space
340
22
 70
     0
280
     1
281
     0
  0
BLOCK_RECORD
  5
1B
330
1
100
AcDbSymbolTableRecord
100
AcDbBlockTableRecord
  2
*Paper_Space
340
1E
 70
     0
280
     1
281
     0
  0
BLOCK_RECORD
  5
23
330
1
100
AcDbSymbolTableRecord
100
AcDbBlockTableRecord
  2
*Paper_Space0
340
26
 70
     0
280
     1
281
     0
  0
BLOCK_RECORD
  5
23D
330
1
100
AcDbSymbolTableRecord
100
AcDbBlockTableRecord
  2
U0
340
0
102
{BLKREFS
331
23E
102
}
 70
     0
280
     1
281
     0
  0
BLOCK_RECORD
  5
243
330
1
100
AcDbSymbolTableRecord
100
AcDbBlockTableRecord
  2
U1
340
0
102
{BLKREFS
331
244
102
}
 70
     0
280
     1
281
     0
  0
BLOCK_RECORD
  5
249
330
1
100
AcDbSymbolTableRecord
100
AcDbBlockTableRecord
  2
U2
340
0
102
{BLKREFS
331
24A
102
}
 70
     0
280
     1
281
     0
  0
BLOCK_RECORD
  5
24F
330
1
100
AcDbSymbolTableRecord
100
AcDbBlockTableRecord
  2
U3
340
0
102
{BLKREFS
331
250
102
}
 70
     0
280
     1
281
     0
  0
BLOCK_RECORD
  5
255
330
1
100
AcDbSymbolTableRecord
100
AcDbBlockTableRecord
  2
U4
340
0
102
{BLKREFS
331
256
102
}
 70
     0
280
     1
281
     0
  0
BLOCK_RECORD
  5
25B
330
1
100
AcDbSymbolTableRecord
100
AcDbBlockTableRecord
  2
U5
340
0
102
{BLKREFS
331
25C
102
}
 70
     0
280
     1
281
     0
  0
BLOCK_RECORD
  5
261
330
1
100
AcDbSymbolTableRecord
100
AcDbBlockTableRecord
  2
U6
340
0
102
{BLKREFS
331
262
102
}
 70
     0
280
     1
281
     0
  0
BLOCK_RECORD
  5
267
330
1
100
AcDbSymbolTableRecord
100
AcDbBlockTableRecord
  2
U7
340
0
102
{BLKREFS
331
268
102
}
 70
     0
280
     1
281
     0
  0
BLOCK_RECORD
  5
26D
330
1
100
AcDbSymbolTableRecord
100
AcDbBlockTableRecord
  2
U8
340
0
102
{BLKREFS
331
26E
102
}
 70
     0
280
     1
281
     0
  0
BLOCK_RECORD
  5
273
330
1
100
AcDbSymbolTableRecord
100
AcDbBlockTableRecord
  2
U9
340
0
102
{BLKREFS
331
274
102
}
 70
     0
280
     1
281
     0
  0
BLOCK_RECORD
  5
279
330
1
100
AcDbSymbolTableRecord
100
AcDbBlockTableRecord
  2
U10
340
0
102
{BLKREFS
331
27A
102
}
 70
     0
280
     1
281
     0
  0
BLOCK_RECORD
  5
27F
330
1
100
AcDbSymbolTableRecord
100
AcDbBlockTableRecord
  2
U11
340
0
102
{BLKREFS
331
280
102
}
 70
     0
280
     1
281
     0
  0
BLOCK_RECORD
  5
285
330
1
100
AcDbSymbolTableRecord
100
AcDbBlockTableRecord
  2
U12
340
0
102
{BLKREFS
331
286
102
}
 70
     0
280
     1
281
     0
  0
BLOCK_RECORD
  5
28B
330
1
100
AcDbSymbolTableRecord
100
AcDbBlockTableRecord
  2
U13
340
0
102
{BLKREFS
331
28C
102
}
 70
     0
280
     1
281
     0
  0
BLOCK_RECORD
  5
291
330
1
100
AcDbSymbolTableRecord
100
AcDbBlockTableRecord
  2
U14
340
0
102
{BLKREFS
331
292
102
}
 70
     0
280
     1
281
     0
  0
BLOCK_RECORD
  5
297
330
1
100
AcDbSymbolTableRecord
100
AcDbBlockTableRecord
  2
U15
340
0
102
{BLKREFS
331
298
102
}
 70
     0
280
     1
281
     0
  0
BLOCK_RECORD
  5
2E1
330
1
100
AcDbSymbolTableRecord
100
AcDbBlockTableRecord
  2
U16
340
0
102
{BLKREFS
331
2E2
102
}
 70
     0
280
     1
281
     0
  0
BLOCK_RECORD
  5
32B
330
1
100
AcDbSymbolTableRecord
100
AcDbBlockTableRecord
  2
U17
340
0
102
{BLKREFS
331
32C
102
}
 70
     0
280
     1
281
     0
  0
BLOCK_RECORD
  5
4FD
330
1
100
AcDbSymbolTableRecord
100
AcDbBlockTableRecord
  2
U18
340
0
102
{BLKREFS
331
4FE
102
}
 70
     0
280
     1
281
     0
  0
BLOCK_RECORD
  5
504
330
1
100
AcDbSymbolTableRecord
100
AcDbBlockTableRecord
  2
U19
340
0
102
{BLKREFS
331
505
102
}
 70
     0
280
     1
281
     0
  0
BLOCK_RECORD
  5
50B
330
1
100
AcDbSymbolTableRecord
100
AcDbBlockTableRecord
  2
U20
340
0
102
{BLKREFS
331
50C
102
}
 70
     0
280
     1
281
     0
  0
BLOCK_RECORD
  5
511
330
1
100
AcDbSymbolTableRecord
100
AcDbBlockTableRecord
  2
U21
340
0
102
{BLKREFS
331
512
102
}
 70
     0
280
     1
281
     0
  0
BLOCK_RECORD
  5
518
330
1
100
AcDbSymbolTableRecord
100
AcDbBlockTableRecord
  2
U22
340
0
102
{BLKREFS
331
519
102
}
 70
     0
280
     1
281
     0
  0
BLOCK_RECORD
  5
51F
330
1
100
AcDbSymbolTableRecord
100
AcDbBlockTableRecord
  2
U23
340
0
102
{BLKREFS
331
520
102
}
 70
     0
280
     1
281
     0
  0
BLOCK_RECORD
  5
525
330
1
100
AcDbSymbolTableRecord
100
AcDbBlockTableRecord
  2
U24
340
0
102
{BLKREFS
331
526
102
}
 70
     0
280
     1
281
     0
  0
BLOCK_RECORD
  5
52B
330
1
100
AcDbSymbolTableRecord
100
AcDbBlockTableRecord
  2
U25
340
0
102
{BLKREFS
331
52C
102
}
 70
     0
280
     1
281
     0
  0
BLOCK_RECORD
  5
531
330
1
100
AcDbSymbolTableRecord
100
AcDbBlockTableRecord
  2
U26
340
0
102
{BLKREFS
331
532
102
}
 70
     0
280
     1
281
     0
  0
BLOCK_RECORD
  5
537
330
1
100
AcDbSymbolTableRecord
100
AcDbBlockTableRecord
  2
U27
340
0
102
{BLKREFS
331
538
102
}
 70
     0
280
     1
281
     0
  0
BLOCK_RECORD
  5
53D
330
1
100
AcDbSymbolTableRecord
100
AcDbBlockTableRecord
  2
U28
340
0
102
{BLKREFS
331
53E
102
}
 70
     0
280
     1
281
     0
  0
BLOCK_RECORD
  5
543
330
1
100
AcDbSymbolTableRecord
100
AcDbBlockTableRecord
  2
U29
340
0
102
{BLKREFS
331
544
102
}
 70
     0
280
     1
281
     0
  0
BLOCK_RECORD
  5
54B
330
1
100
AcDbSymbolTableRecord
100
AcDbBlockTableRecord
  2
U30
340
0
102
{BLKREFS
331
54C
102
}
 70
     0
280
     1
281
     0
  0
BLOCK_RECORD
  5
552
330
1
100
AcDbSymbolTableRecord
100
AcDbBlockTableRecord
  2
U31
340
0
102
{BLKREFS
331
553
102
}
 70
     0
280
     1
281
     0
  0
BLOCK_RECORD
  5
559
330
1
100
AcDbSymbolTableRecord
100
AcDbBlockTableRecord
  2
U32
340
0
102
{BLKREFS
331
55A
102
}
 70
     0
280
     1
281
     0
  0
BLOCK_RECORD
  5
560
330
1
100
AcDbSymbolTableRecord
100
AcDbBlockTableRecord
  2
U33
340
0
102
{BLKREFS
331
561
102
}
 70
     0
280
     1
281
     0
  0
BLOCK_RECORD
  5
56B
330
1
100
AcDbSymbolTableRecord
100
AcDbBlockTableRecord
  2
U34
340
0
102
{BLKREFS
331
56C
102
}
 70
     0
280
     1
281
     0
  0
ENDTAB
  0
ENDSEC
  0
SECTION
  2
BLOCKS
  0
BLOCK
  5
20
330
1F
100
AcDbEntity
  8
0
100
AcDbBlockBegin
  2
*Model_Space
 70
     0
 10
0.0
 20
0.0
 30
0.0
  3
*Model_Space
  1

  0
ENDBLK
  5
21
330
1F
100
AcDbEntity
  8
0
100
AcDbBlockEnd
  0
BLOCK
  5
1C
330
1B
100
AcDbEntity
 67
     1
  8
0
100
AcDbBlockBegin
  2
*Paper_Space
 70
     0
 10
0.0
 20
0.0
 30
0.0
  3
*Paper_Space
  1

  0
ENDBLK
  5
1D
330
1B
100
AcDbEntity
 67
     1
  8
0
100
AcDbBlockEnd
  0
BLOCK
  5
24
330
23
100
AcDbEntity
  8
0
100
AcDbBlockBegin
  2
*Paper_Space0
 70
     0
 10
0.0
 20
0.0
 30
0.0
  3
*Paper_Space0
  1

  0
ENDBLK
  5
25
330
23
100
AcDbEntity
  8
0
100
AcDbBlockEnd
  0
BLOCK
  5
241
330
23D
100
AcDbEntity
  8
0
100
AcDbBlockBegin
  2
U0
 70
     0
 10
0.0
 20
0.0
 30
0.0
  3
U0
  1

  0
LINE
  5
23F
330
23D
100
AcDbEntity
  8
0
  6
K5LT_BASIC
 62
     5
420
      255
370
    60
100
AcDbLine
 10
113.3825339982213
 20
-54.04236125272291
 30
0.0
 11
120.6937283774969
 21
-51.38130412173632
 31
0.0
  0
LINE
  5
240
330
23D
100
AcDbEntity
  8
0
  6
K5LT_BASIC
 62
     5
420
      255
370
    60
100
AcDbLine
 10
127.8856624945693
 20
-50.89200972126855
 30
0.0
 11
132.4491827718011
 21
-49.23102417688642
 31
0.0
  0
ENDBLK
  5
242
330
23D
100
AcDbEntity
  8
0
100
AcDbBlockEnd
  0
BLOCK
  5
247
330
243
100
AcDbEntity
  8
0
100
AcDbBlockBegin
  2
U1
 70
     0
 10
0.0
 20
0.0
 30
0.0
  3
U1
  1

  0
LINE
  5
245
330
243
100
AcDbEntity
  8
0
  6
K5LT_BASIC
 62
     5
420
      255
370
    60
100
AcDbLine
 10
141.0230013554174
 20
-52.10266863193829
 30
0.0
 11
133.1332230584521
 21
-49.23102417688642
 31
0.0
  0
LINE
  5
246
330
243
100
AcDbEntity
  8
0
  6
K5LT_BASIC
 62
     5
420
      255
370
    60
100
AcDbLine
 10
148.9340472885306
 20
-52.8536983285594
 30
0.0
 11
141.0442689915726
 21
-49.98205387350754
 31
0.0
  0
ENDBLK
  5
248
330
243
100
AcDbEntity
  8
0
100
AcDbBlockEnd
  0
BLOCK
  5
24D
330
249
100
AcDbEntity
  8
0
100
AcDbBlockBegin
  2
U2
 70
     0
 10
0.0
 20
0.0
 30
0.0
  3
U2
  1

  0
LINE
  5
24B
330
249
100
AcDbEntity
  8
0
  6
K5LT_BASIC
 62
     5
420
      255
370
    60
100
AcDbLine
 10
149.6180875751816
 20
-52.8536983285594
 30
0.0
 11
157.5078658721541
 21
-49.98205387350754
 31
0.0
  0
LINE
  5
24C
330
249
100
AcDbEntity
  8
0
  6
K5LT_BASIC
 62
     5
420
      255
370
    60
100
AcDbLine
 10
157.5291335082948
 20
-52.10266863195284
 30
0.0
 11
165.4189118052745
 21
-49.2310241768937
 31
0.0
  0
ENDBLK
  5
24E
330
249
100
AcDbEntity
  8
0
100
AcDbBlockEnd
  0
BLOCK
  5
253
330
24F
100
AcDbEntity
  8
0
100
AcDbBlockBegin
  2
U3
 70
     0
 10
0.0
 20
0.0
 30
0.0
  3
U3
  1

  0
LINE
  5
251
330
24F
100
AcDbEntity
  8
0
  6
K5LT_BASIC
 62
     5
420
      255
370
    60
100
AcDbLine
 10
170.7318818031999
 20
-50.91581680830132
 30
0.0
 11
166.1029520919255
 21
-49.23102417688642
 31
0.0
  0
LINE
  5
252
330
24F
100
AcDbEntity
  8
0
  6
K5LT_BASIC
 62
     5
420
      255
370
    60
100
AcDbLine
 10
181.9037763219967
 20
-52.85369832856668
 30
0.0
 11
177.9224174948467
 21
-51.40460222354886
 31
0.0
  0
ENDBLK
  5
254
330
24F
100
AcDbEntity
  8
0
100
AcDbBlockEnd
  0
BLOCK
  5
259
330
255
100
AcDbEntity
  8
0
100
AcDbBlockBegin
  2
U4
 70
     0
 10
0.0
 20
0.0
 30
0.0
  3
U4
  1

  0
LINE
  5
257
330
255
100
AcDbEntity
  8
0
  6
K5LT_BASIC
 62
     5
420
      255
370
    60
100
AcDbLine
 10
182.5878166086623
 20
-52.8536983285594
 30
0.0
 11
190.4775949056275
 21
-49.98205387350754
 31
0.0
  0
LINE
  5
258
330
255
100
AcDbEntity
  8
0
  6
K5LT_BASIC
 62
     5
420
      255
370
    60
100
AcDbLine
 10
190.4988625417973
 20
-52.10266863193829
 30
0.0
 11
198.388640838748
 21
-49.23102417688642
 31
0.0
  0
ENDBLK
  5
25A
330
255
100
AcDbEntity
  8
0
100
AcDbBlockEnd
  0
BLOCK
  5
25F
330
25B
100
AcDbEntity
  8
0
100
AcDbBlockBegin
  2
U5
 70
     0
 10
0.0
 20
0.0
 30
0.0
  3
U5
  1

  0
LINE
  5
25D
330
25B
100
AcDbEntity
  8
0
  6
K5LT_BASIC
 62
     5
420
      255
370
    60
100
AcDbLine
 10
206.9624594223642
 20
-52.10266863193829
 30
0.0
 11
199.072681125399
 21
-49.23102417688642
 31
0.0
  0
LINE
  5
25E
330
25B
100
AcDbEntity
  8
0
  6
K5LT_BASIC
 62
     5
420
      255
370
    60
100
AcDbLine
 10
214.8735053554919
 20
-52.8536983285594
 30
0.0
 11
206.983727058534
 21
-49.98205387350754
 31
0.0
  0
ENDBLK
  5
260
330
25B
100
AcDbEntity
  8
0
100
AcDbBlockEnd
  0
BLOCK
  5
265
330
261
100
AcDbEntity
  8
0
100
AcDbBlockBegin
  2
U6
 70
     0
 10
0.0
 20
0.0
 30
0.0
  3
U6
  1

  0
LINE
  5
263
330
261
100
AcDbEntity
  8
0
  6
K5LT_BASIC
 62
     5
420
      255
370
    60
100
AcDbLine
 10
215.5575456421429
 20
-52.8536983285594
 30
0.0
 11
220.7833500445995
 21
-50.95166107596742
 31
0.0
  0
LINE
  5
264
330
261
100
AcDbEntity
  8
0
  6
K5LT_BASIC
 62
     5
420
      255
370
    60
100
AcDbLine
 10
227.9471756142302
 20
-50.47259735010448
 30
0.0
 11
231.3583698722214
 21
-49.23102417688642
 31
0.0
  0
ENDBLK
  5
266
330
261
100
AcDbEntity
  8
0
100
AcDbBlockEnd
  0
BLOCK
  5
26B
330
267
100
AcDbEntity
  8
0
100
AcDbBlockBegin
  2
U7
 70
     0
 10
0.0
 20
0.0
 30
0.0
  3
U7
  1

  0
LINE
  5
269
330
267
100
AcDbEntity
  8
0
  6
K5LT_BASIC
 62
     5
420
      255
370
    60
100
AcDbLine
 10
239.9321884558376
 20
-52.10266863193829
 30
0.0
 11
232.0424101588724
 21
-49.23102417688642
 31
0.0
  0
LINE
  5
26A
330
267
100
AcDbEntity
  8
0
  6
K5LT_BASIC
 62
     5
420
      255
370
    60
100
AcDbLine
 10
247.8432343889508
 20
-52.8536983285594
 30
0.0
 11
239.9534560919928
 21
-49.98205387350754
 31
0.0
  0
ENDBLK
  5
26C
330
267
100
AcDbEntity
  8
0
100
AcDbBlockEnd
  0
BLOCK
  5
271
330
26D
100
AcDbEntity
  8
0
100
AcDbBlockBegin
  2
U8
 70
     0
 10
0.0
 20
0.0
 30
0.0
  3
U8
  1

  0
LINE
  5
26F
330
26D
100
AcDbEntity
  8
0
  6
K5LT_BASIC
 62
     5
420
      255
370
    60
100
AcDbLine
 10
248.5272746756018
 20
-52.8536983285594
 30
0.0
 11
256.4170529725598
 21
-49.98205387350754
 31
0.0
  0
LINE
  5
270
330
26D
100
AcDbEntity
  8
0
  6
K5LT_BASIC
 62
     5
420
      255
370
    60
100
AcDbLine
 10
256.4383206087296
 20
-52.10266863193829
 30
0.0
 11
264.3280989056948
 21
-49.23102417688642
 31
0.0
  0
ENDBLK
  5
272
330
26D
100
AcDbEntity
  8
0
100
AcDbBlockEnd
  0
BLOCK
  5
277
330
273
100
AcDbEntity
  8
0
100
AcDbBlockBegin
  2
U9
 70
     0
 10
0.0
 20
0.0
 30
0.0
  3
U9
  1

  0
LINE
  5
275
330
273
100
AcDbEntity
  8
0
  6
K5LT_BASIC
 62
     5
420
      255
370
    60
100
AcDbLine
 10
270.8496926467342
 20
-51.35571987521689
 30
0.0
 11
265.0121391923458
 21
-49.23102417688642
 31
0.0
  0
LINE
  5
276
330
273
100
AcDbEntity
  8
0
  6
K5LT_BASIC
 62
     5
420
      255
370
    60
100
AcDbLine
 10
280.8129634224242
 20
-52.8536983285594
 30
0.0
 11
277.9608540345507
 21
-51.8156154065
 31
0.0
  0
ENDBLK
  5
278
330
273
100
AcDbEntity
  8
0
100
AcDbBlockEnd
  0
BLOCK
  5
27D
330
279
100
AcDbEntity
  8
0
100
AcDbBlockBegin
  2
U10
 70
     0
 10
0.0
 20
0.0
 30
0.0
  3
U10
  1

  0
LINE
  5
27B
330
279
100
AcDbEntity
  8
0
  6
K5LT_BASIC
 62
     5
420
      255
370
    60
100
AcDbLine
 10
281.4970037090752
 20
-52.8536983285594
 30
0.0
 11
289.3867820060477
 21
-49.98205387350754
 31
0.0
  0
LINE
  5
27C
330
279
100
AcDbEntity
  8
0
  6
K5LT_BASIC
 62
     5
420
      255
370
    60
100
AcDbLine
 10
289.408049642203
 20
-52.10266863193829
 30
0.0
 11
297.2978279391682
 21
-49.23102417688642
 31
0.0
  0
ENDBLK
  5
27E
330
279
100
AcDbEntity
  8
0
100
AcDbBlockEnd
  0
BLOCK
  5
283
330
27F
100
AcDbEntity
  8
0
100
AcDbBlockBegin
  2
U11
 70
     0
 10
0.0
 20
0.0
 30
0.0
  3
U11
  1

  0
LINE
  5
281
330
27F
100
AcDbEntity
  8
0
  6
K5LT_BASIC
 62
     5
420
      255
370
    60
100
AcDbLine
 10
305.8716465227844
 20
-52.10266863193829
 30
0.0
 11
297.9818682258192
 21
-49.23102417688642
 31
0.0
  0
LINE
  5
282
330
27F
100
AcDbEntity
  8
0
  6
K5LT_BASIC
 62
     5
420
      255
370
    60
100
AcDbLine
 10
313.7826924559049
 20
-52.8536983285594
 30
0.0
 11
305.8929141589397
 21
-49.98205387350754
 31
0.0
  0
ENDBLK
  5
284
330
27F
100
AcDbEntity
  8
0
100
AcDbBlockEnd
  0
BLOCK
  5
289
330
285
100
AcDbEntity
  8
0
100
AcDbBlockBegin
  2
U12
 70
     0
 10
0.0
 20
0.0
 30
0.0
  3
U12
  1

  0
LINE
  5
287
330
285
100
AcDbEntity
  8
0
  6
K5LT_BASIC
 62
     5
420
      255
370
    60
100
AcDbLine
 10
314.4667327425414
 20
-52.8536983285594
 30
0.0
 11
320.9329795860976
 21
-50.50017695009592
 31
0.0
  0
LINE
  5
288
330
285
100
AcDbEntity
  8
0
  6
K5LT_BASIC
 62
     5
420
      255
370
    60
100
AcDbLine
 10
327.9641797769364
 20
-50.06938491440815
 30
0.0
 11
330.2675569726416
 21
-49.23102417688642
 31
0.0
  0
ENDBLK
  5
28A
330
285
100
AcDbEntity
  8
0
100
AcDbBlockEnd
  0
BLOCK
  5
28F
330
28B
100
AcDbEntity
  8
0
100
AcDbBlockBegin
  2
U13
 70
     0
 10
0.0
 20
0.0
 30
0.0
  3
U13
  1

  0
LINE
  5
28D
330
28B
100
AcDbEntity
  8
0
  6
K5LT_BASIC
 62
     5
420
      255
370
    60
100
AcDbLine
 10
338.8413755562578
 20
-52.10266863193829
 30
0.0
 11
330.9515972592926
 21
-49.23102417688642
 31
0.0
  0
LINE
  5
28E
330
28B
100
AcDbEntity
  8
0
  6
K5LT_BASIC
 62
     5
420
      255
370
    60
100
AcDbLine
 10
346.752421489371
 20
-52.8536983285594
 30
0.0
 11
338.8626431924131
 21
-49.98205387350754
 31
0.0
  0
ENDBLK
  5
290
330
28B
100
AcDbEntity
  8
0
100
AcDbBlockEnd
  0
BLOCK
  5
295
330
291
100
AcDbEntity
  8
0
100
AcDbBlockBegin
  2
U14
 70
     0
 10
0.0
 20
0.0
 30
0.0
  3
U14
  1

  0
LINE
  5
293
330
291
100
AcDbEntity
  8
0
  6
K5LT_BASIC
 62
     5
420
      255
370
    60
100
AcDbLine
 10
347.436461776022
 20
-52.8536983285594
 30
0.0
 11
355.3262400729946
 21
-49.98205387350754
 31
0.0
  0
LINE
  5
294
330
291
100
AcDbEntity
  8
0
  6
K5LT_BASIC
 62
     5
420
      255
370
    60
100
AcDbLine
 10
355.3475077091498
 20
-52.10266863194556
 30
0.0
 11
366.3374173869743
 21
-48.10266863193829
 31
0.0
  0
ENDBLK
  5
296
330
291
100
AcDbEntity
  8
0
100
AcDbBlockEnd
  0
BLOCK
  5
2DF
330
297
100
AcDbEntity
  8
0
100
AcDbBlockBegin
  2
U15
 70
     0
 10
0.0
 20
0.0
 30
0.0
  3
U15
  1

  0
ARC
  5
299
330
297
100
AcDbEntity
  8
0
  6
K5LT32768
 62
     5
420
      255
370
    60
100
AcDbCircle
 10
233.9063383983666
 20
51.55763874726836
 30
0.0
 40
15.0
100
AcDbArc
 50
180.0
 51
270.0
  0
CIRCLE
  5
29A
330
297
100
AcDbEntity
  8
0
  6
K5LT32768
 62
     5
420
      255
370
    60
100
AcDbCircle
 10
233.9063383983666
 20
33.05763874726836
 30
0.0
 40
1.6
  0
CIRCLE
  5
29B
330
297
100
AcDbEntity
  8
0
  6
K5LT32768
 62
     5
420
      255
370
    60
100
AcDbCircle
 10
203.6063383983637
 20
26.55763874726836
 30
0.0
 40
1.6
  0
LINE
  5
29C
330
297
100
AcDbEntity
  8
0
  6
K5LT32768
 62
     5
420
      255
370
    60
100
AcDbLine
 10
200.4342611437387
 20
28.03680266335869
 30
0.0
 11
207.3694162687243
 21
42.90929082369257
 31
0.0
  0
LINE
  5
29D
330
297
100
AcDbEntity
  8
0
  6
K5LT32768
 62
     5
420
      255
370
    60
100
AcDbLine
 10
206.7784156529888
 20
25.07847483117803
 30
0.0
 11
213.5779817391885
 21
39.66019135950046
 31
0.0
  0
ARC
  5
29E
330
297
100
AcDbEntity
  8
0
  6
K5LT32768
 62
     5
420
      255
370
    60
100
AcDbCircle
 10
233.9063383983666
 20
51.55763874726836
 30
0.0
 40
22.0
100
AcDbArc
 50
212.3883447250853
 51
270.0
  0
ARC
  5
29F
330
297
100
AcDbEntity
  8
0
  6
K5LT32768
 62
     5
420
      255
370
    60
100
AcDbCircle
 10
214.4842895262263
 20
39.23757309775829
 30
0.0
 40
0.9999999999999999
100
AcDbArc
 50
32.38834472494509
 51
154.9999999999515
  0
LINE
  5
2A0
330
297
100
AcDbEntity
  8
0
  6
K5LT32768
 62
     5
420
      255
370
    60
100
AcDbLine
 10
208.3063383983608
 20
51.55763874726836
 30
0.0
 11
208.3063383983608
 21
47.13547344109975
 31
0.0
  0
ARC
  5
2A1
330
297
100
AcDbEntity
  8
0
  6
K5LT32768
 62
     5
420
      255
370
    60
100
AcDbCircle
 10
198.3063383983608
 20
47.13547344109975
 30
0.0
 40
9.999999999999995
100
AcDbArc
 50
334.9999999999918
 51
0.0
  0
ARC
  5
2A2
330
297
100
AcDbEntity
  8
0
  6
K5LT32768
 62
     5
420
      255
370
    60
100
AcDbCircle
 10
214.4842895262263
 20
39.23757309775829
 30
0.0
 40
2.999999999999997
100
AcDbArc
 50
32.38834472494503
 51
73.70922214908587
  0
ARC
  5
2A3
330
297
100
AcDbEntity
  8
0
  6
K5LT32768
 62
     5
420
      255
370
    60
100
AcDbCircle
 10
198.3063383983608
 20
47.13547344109975
 30
0.0
 40
11.99999999999999
100
AcDbArc
 50
334.9999999999918
 51
357.4953894235018
  0
ARC
  5
2A4
330
297
100
AcDbEntity
  8
0
  6
K5LT32768
 62
     5
420
      255
370
    60
100
AcDbCircle
 10
233.9063383983666
 20
51.55763874726836
 30
0.0
 40
20.0
100
AcDbArc
 50
212.3883447250853
 51
256.3003333373439
  0
ARC
  5
2A5
330
297
100
AcDbEntity
  8
0
  6
K5LT32768
 62
     5
420
      255
370
    60
100
AcDbCircle
 10
233.9063383983666
 20
51.55763874726836
 30
0.0
 40
17.0
100
AcDbArc
 50
195.0177389981336
 51
255.9230564178374
  0
ARC
  5
2A6
330
297
100
AcDbEntity
  8
0
  6
K5LT32768
 62
     5
420
      255
370
    60
100
AcDbCircle
 10
213.6063383983637
 20
51.55763874726836
 30
0.0
 40
4.500000000000001
100
AcDbArc
 50
291.3236862635062
 51
302.0027316542174
  0
LINE
  5
2A7
330
297
100
AcDbEntity
  8
0
  6
K5LT32768
 62
     5
420
      255
370
    60
100
AcDbLine
 10
204.1368830413849
 20
31.24469778058119
 30
0.0
 11
209.1820318427999
 21
42.06405430020823
 31
0.0
  0
LINE
  5
2A8
330
297
100
AcDbEntity
  8
0
  6
K5LT32768
 62
     5
420
      255
370
    60
100
AcDbLine
 10
206.8558064024764
 20
29.97684299536195
 30
0.0
 11
211.7653661651129
 21
40.5054278829848
 31
0.0
  0
ARC
  5
2A9
330
297
100
AcDbEntity
  8
0
  6
K5LT32768
 62
     5
420
      255
370
    60
100
AcDbCircle
 10
203.6063383983637
 20
26.55763874726836
 30
0.0
 40
3.499999999999998
100
AcDbArc
 50
154.9999999999925
 51
335.0000000000074
  0
ARC
  5
2AA
330
297
100
AcDbEntity
  8
0
  6
K5LT32768
 62
     5
420
      255
370
    60
100
AcDbCircle
 10
203.6063383983637
 20
26.55763874726836
 30
0.0
 40
3.5
100
AcDbArc
 50
58.62062979172564
 51
71.3793702083457
  0
ARC
  5
2AB
330
297
100
AcDbEntity
  8
0
  6
K5LT32768
 62
     5
420
      255
370
    60
100
AcDbCircle
 10
233.9063383983666
 20
33.05763874726836
 30
0.0
 40
3.5
100
AcDbArc
 50
270.0
 51
90.0
  0
ARC
  5
2AC
330
297
100
AcDbEntity
  8
0
  6
K5LT32768
 62
     5
420
      255
370
    60
100
AcDbCircle
 10
233.9063383983666
 20
33.05763874726836
 30
0.0
 40
3.499999999999999
100
AcDbArc
 50
166.6304296903986
 51
179.4838148235778
  0
ARC
  5
2AD
330
297
100
AcDbEntity
  8
0
  6
K5LT32768
 62
     5
420
      255
370
    60
100
AcDbCircle
 10
205.0431908284227
 20
30.82207951883902
 30
0.0
 40
1.000000000000006
100
AcDbArc
 50
154.9999999999515
 51
251.3793702085357
  0
ARC
  5
2AE
330
297
100
AcDbEntity
  8
0
  6
K5LT32768
 62
     5
420
      255
370
    60
100
AcDbCircle
 10
205.9494986154386
 20
30.39946125710412
 30
0.0
 40
1.000000000000005
100
AcDbArc
 50
238.6206297918179
 51
334.9999999999515
  0
ARC
  5
2AF
330
297
100
AcDbEntity
  8
0
  6
K5LT32768
 62
     5
420
      255
370
    60
100
AcDbCircle
 10
229.4065210171175
 20
33.09817928780831
 30
0.0
 40
1.000000000000003
100
AcDbArc
 50
256.300333337413
 51
359.4838148235775
  0
ARC
  5
2B0
330
297
100
AcDbEntity
  8
0
  6
K5LT32768
 62
     5
420
      255
370
    60
100
AcDbCircle
 10
229.5282936997028
 20
34.09817928780831
 30
0.0
 40
0.9999999999999977
100
AcDbArc
 50
346.6304296906217
 51
75.92305641779826
  0
ARC
  5
2B1
330
297
100
AcDbEntity
  8
0
  6
K5LT32768
 62
     5
420
      255
370
    60
100
AcDbCircle
 10
211.2939196063453
 20
46.56737629622512
 30
0.0
 40
1.000000000000002
100
AcDbArc
 50
65.13764422722585
 51
177.4953894233666
  0
ARC
  5
2B2
330
297
100
AcDbEntity
  8
0
  6
K5LT32768
 62
     5
420
      255
370
    60
100
AcDbCircle
 10
216.5211167234884
 20
46.89351317912951
 30
0.0
 40
1.000000000000001
100
AcDbArc
 50
15.01773899798585
 51
122.002731654314
  0
LINE
  5
2B3
330
297
100
AcDbEntity
  8
0
  6
K5LT32768
 62
     5
420
      255
370
    60
100
AcDbLine
 10
212.6063383983637
 20
46.43416336429073
 30
0.0
 11
212.6063383983637
 21
42.01559349106537
 31
0.0
  0
LINE
  5
2B4
330
297
100
AcDbEntity
  8
0
  6
K5LT32768
 62
     5
420
      255
370
    60
100
AcDbLine
 10
214.6063383983637
 20
46.43416336429073
 30
0.0
 11
214.6063383983637
 21
43.07697491686122
 31
0.0
  0
ARC
  5
2B5
330
297
100
AcDbEntity
  8
0
  6
K5LT32768
 62
     5
420
      255
370
    60
100
AcDbCircle
 10
214.4842895262263
 20
39.23757309775829
 30
0.0
 40
3.000000000000001
100
AcDbArc
 50
136.0122069473271
 51
154.9999999999515
  0
ARC
  5
2B6
330
297
100
AcDbEntity
  8
0
  6
K5LT32768
 62
     5
420
      255
370
    60
100
AcDbCircle
 10
213.6063383983637
 20
51.55763874726836
 30
0.0
 40
4.500000000000003
100
AcDbArc
 50
245.1376442273796
 51
248.6763137364939
  0
ARC
  5
2B7
330
297
100
AcDbEntity
  8
0
  6
K5LT32768
 62
     5
420
      255
370
    60
100
AcDbCircle
 10
211.6063383983637
 20
46.43416336429073
 30
0.0
 40
1.0
100
AcDbArc
 50
0.0
 51
68.67631373670595
  0
ARC
  5
2B8
330
297
100
AcDbEntity
  8
0
  6
K5LT32768
 62
     5
420
      255
370
    60
100
AcDbCircle
 10
215.6063383983637
 20
46.43416336429073
 30
0.0
 40
1.000000000000002
100
AcDbArc
 50
111.3236862632944
 51
180.0
  0
ARC
  5
2B9
330
297
100
AcDbEntity
  8
0
  6
K5LT32768
 62
     5
420
      255
370
    60
100
AcDbCircle
 10
211.6063383983637
 20
42.01559349106537
 30
0.0
 40
1.000000000000001
100
AcDbArc
 50
316.0122069472548
 51
0.0
  0
ARC
  5
2BA
330
297
100
AcDbEntity
  8
0
  6
K5LT32768
 62
     5
420
      255
370
    60
100
AcDbCircle
 10
215.6063383983637
 20
43.07697491686122
 30
0.0
 40
1.0
100
AcDbArc
 50
180.0
 51
253.709222148986
  0
ARC
  5
2BB
330
297
100
AcDbEntity
  8
0
  6
K5LT32768
 62
     5
420
      255
370
    60
100
AcDbCircle
 10
213.6063383983637
 20
51.55763874726836
 30
0.0
 40
2.5
100
AcDbArc
 50
180.0
 51
0.0
  0
ARC
  5
2BC
330
297
100
AcDbEntity
  8
0
  6
K5LT32768
 62
     5
420
      255
370
    60
100
AcDbCircle
 10
233.9063383983666
 20
51.55763874726836
 30
0.0
 40
15.0
100
AcDbArc
 50
90.0
 51
180.0
  0
CIRCLE
  5
2BD
330
297
100
AcDbEntity
  8
0
  6
K5LT32768
 62
     5
420
      255
370
    60
100
AcDbCircle
 10
233.9063383983666
 20
70.05763874726836
 30
0.0
 40
1.6
  0
CIRCLE
  5
2BE
330
297
100
AcDbEntity
  8
0
  6
K5LT32768
 62
     5
420
      255
370
    60
100
AcDbCircle
 10
203.6063383983637
 20
76.55763874726836
 30
0.0
 40
1.6
  0
LINE
  5
2BF
330
297
100
AcDbEntity
  8
0
  6
K5LT32768
 62
     5
420
      255
370
    60
100
AcDbLine
 10
200.4342611437387
 20
75.07847483117803
 30
0.0
 11
207.3694162687243
 21
60.20598667084414
 31
0.0
  0
LINE
  5
2C0
330
297
100
AcDbEntity
  8
0
  6
K5LT32768
 62
     5
420
      255
370
    60
100
AcDbLine
 10
206.7784156529888
 20
78.03680266335869
 30
0.0
 11
213.5779817391885
 21
63.45508613503625
 31
0.0
  0
ARC
  5
2C1
330
297
100
AcDbEntity
  8
0
  6
K5LT32768
 62
     5
420
      255
370
    60
100
AcDbCircle
 10
233.9063383983666
 20
51.55763874726836
 30
0.0
 40
22.0
100
AcDbArc
 50
90.0
 51
147.6116552749146
  0
ARC
  5
2C2
330
297
100
AcDbEntity
  8
0
  6
K5LT32768
 62
     5
420
      255
370
    60
100
AcDbCircle
 10
214.4842895262263
 20
63.87770439677843
 30
0.0
 40
1.000000000000005
100
AcDbArc
 50
205.0000000000483
 51
327.6116552750549
  0
LINE
  5
2C3
330
297
100
AcDbEntity
  8
0
  6
K5LT32768
 62
     5
420
      255
370
    60
100
AcDbLine
 10
208.3063383983608
 20
51.55763874726836
 30
0.0
 11
208.3063383983608
 21
55.97980405343696
 31
0.0
  0
ARC
  5
2C4
330
297
100
AcDbEntity
  8
0
  6
K5LT32768
 62
     5
420
      255
370
    60
100
AcDbCircle
 10
198.3063383983608
 20
55.97980405343696
 30
0.0
 40
10.0
100
AcDbArc
 50
0.0
 51
25.00000000000824
  0
ARC
  5
2C5
330
297
100
AcDbEntity
  8
0
  6
K5LT32768
 62
     5
420
      255
370
    60
100
AcDbCircle
 10
214.4842895262263
 20
63.87770439677843
 30
0.0
 40
3.0
100
AcDbArc
 50
286.2907778509141
 51
327.611655275055
  0
ARC
  5
2C6
330
297
100
AcDbEntity
  8
0
  6
K5LT32768
 62
     5
420
      255
370
    60
100
AcDbCircle
 10
198.3063383983608
 20
55.97980405343696
 30
0.0
 40
12.00000000000001
100
AcDbArc
 50
2.504610576498239
 51
25.00000000000823
  0
ARC
  5
2C7
330
297
100
AcDbEntity
  8
0
  6
K5LT32768
 62
     5
420
      255
370
    60
100
AcDbCircle
 10
233.9063383983666
 20
51.55763874726836
 30
0.0
 40
20.0
100
AcDbArc
 50
103.6996666626561
 51
147.6116552749145
  0
ARC
  5
2C8
330
297
100
AcDbEntity
  8
0
  6
K5LT32768
 62
     5
420
      255
370
    60
100
AcDbCircle
 10
233.9063383983666
 20
51.55763874726836
 30
0.0
 40
17.0
100
AcDbArc
 50
104.0769435821626
 51
164.9822610018664
  0
ARC
  5
2C9
330
297
100
AcDbEntity
  8
0
  6
K5LT32768
 62
     5
420
      255
370
    60
100
AcDbCircle
 10
213.6063383983637
 20
51.55763874726836
 30
0.0
 40
4.5
100
AcDbArc
 50
57.99726834578265
 51
68.67631373649388
  0
LINE
  5
2CA
330
297
100
AcDbEntity
  8
0
  6
K5LT32768
 62
     5
420
      255
370
    60
100
AcDbLine
 10
204.1368830413849
 20
71.87057971395552
 30
0.0
 11
209.1820318427999
 21
61.05122319432849
 31
0.0
  0
LINE
  5
2CB
330
297
100
AcDbEntity
  8
0
  6
K5LT32768
 62
     5
420
      255
370
    60
100
AcDbLine
 10
206.8558064024764
 20
73.13843449917476
 30
0.0
 11
211.7653661651129
 21
62.60984961155191
 31
0.0
  0
ARC
  5
2CC
330
297
100
AcDbEntity
  8
0
  6
K5LT32768
 62
     5
420
      255
370
    60
100
AcDbCircle
 10
203.6063383983637
 20
76.55763874726836
 30
0.0
 40
3.499999999999996
100
AcDbArc
 50
24.99999999999262
 51
205.0000000000075
  0
ARC
  5
2CD
330
297
100
AcDbEntity
  8
0
  6
K5LT32768
 62
     5
420
      255
370
    60
100
AcDbCircle
 10
203.6063383983637
 20
76.55763874726836
 30
0.0
 40
3.499999999999998
100
AcDbArc
 50
288.6206297916543
 51
301.3793702082743
  0
ARC
  5
2CE
330
297
100
AcDbEntity
  8
0
  6
K5LT32768
 62
     5
420
      255
370
    60
100
AcDbCircle
 10
233.9063383983666
 20
70.05763874726836
 30
0.0
 40
3.5
100
AcDbArc
 50
270.0
 51
90.0
  0
ARC
  5
2CF
330
297
100
AcDbEntity
  8
0
  6
K5LT32768
 62
     5
420
      255
370
    60
100
AcDbCircle
 10
233.9063383983666
 20
70.05763874726836
 30
0.0
 40
3.499999999999999
100
AcDbArc
 50
180.5161851764221
 51
193.3695703096014
  0
ARC
  5
2D0
330
297
100
AcDbEntity
  8
0
  6
K5LT32768
 62
     5
420
      255
370
    60
100
AcDbCircle
 10
205.0431908284227
 20
72.2931979756977
 30
0.0
 40
1.000000000000001
100
AcDbArc
 50
108.6206297914643
 51
205.0000000000483
  0
ARC
  5
2D1
330
297
100
AcDbEntity
  8
0
  6
K5LT32768
 62
     5
420
      255
370
    60
100
AcDbCircle
 10
205.9494986154386
 20
72.71581623743259
 30
0.0
 40
1.000000000000005
100
AcDbArc
 50
25.00000000004842
 51
121.3793702081821
  0
ARC
  5
2D2
330
297
100
AcDbEntity
  8
0
  6
K5LT32768
 62
     5
420
      255
370
    60
100
AcDbCircle
 10
229.4065210171175
 20
70.0170982067284
 30
0.0
 40
1.000000000000001
100
AcDbArc
 50
0.5161851764221761
 51
103.6996666625871
  0
ARC
  5
2D3
330
297
100
AcDbEntity
  8
0
  6
K5LT32768
 62
     5
420
      255
370
    60
100
AcDbCircle
 10
229.5282936997028
 20
69.0170982067284
 30
0.0
 40
0.9999999999999993
100
AcDbArc
 50
284.0769435822017
 51
13.36957030937832
  0
ARC
  5
2D4
330
297
100
AcDbEntity
  8
0
  6
K5LT32768
 62
     5
420
      255
370
    60
100
AcDbCircle
 10
211.2939196063453
 20
56.54790119831159
 30
0.0
 40
0.9999999999999947
100
AcDbArc
 50
182.5046105766334
 51
294.8623557727743
  0
ARC
  5
2D5
330
297
100
AcDbEntity
  8
0
  6
K5LT32768
 62
     5
420
      255
370
    60
100
AcDbCircle
 10
216.5211167234884
 20
56.2217643154072
 30
0.0
 40
0.9999999999999979
100
AcDbArc
 50
237.9972683456865
 51
344.9822610020142
  0
LINE
  5
2D6
330
297
100
AcDbEntity
  8
0
  6
K5LT32768
 62
     5
420
      255
370
    60
100
AcDbLine
 10
212.6063383983637
 20
56.68111413024599
 30
0.0
 11
212.6063383983637
 21
61.09968400347134
 31
0.0
  0
LINE
  5
2D7
330
297
100
AcDbEntity
  8
0
  6
K5LT32768
 62
     5
420
      255
370
    60
100
AcDbLine
 10
214.6063383983637
 20
56.68111413024599
 30
0.0
 11
214.6063383983637
 21
60.03830257767549
 31
0.0
  0
ARC
  5
2D8
330
297
100
AcDbEntity
  8
0
  6
K5LT32768
 62
     5
420
      255
370
    60
100
AcDbCircle
 10
214.4842895262263
 20
63.87770439677843
 30
0.0
 40
3.000000000000001
100
AcDbArc
 50
205.0000000000484
 51
223.9877930526729
  0
ARC
  5
2D9
330
297
100
AcDbEntity
  8
0
  6
K5LT32768
 62
     5
420
      255
370
    60
100
AcDbCircle
 10
213.6063383983637
 20
51.55763874726836
 30
0.0
 40
4.500000000000002
100
AcDbArc
 50
111.3236862635061
 51
114.8623557726203
  0
ARC
  5
2DA
330
297
100
AcDbEntity
  8
0
  6
K5LT32768
 62
     5
420
      255
370
    60
100
AcDbCircle
 10
211.6063383983637
 20
56.68111413024599
 30
0.0
 40
0.9999999999999993
100
AcDbArc
 50
291.323686263294
 51
0.0
  0
ARC
  5
2DB
330
297
100
AcDbEntity
  8
0
  6
K5LT32768
 62
     5
420
      255
370
    60
100
AcDbCircle
 10
215.6063383983637
 20
56.68111413024599
 30
0.0
 40
1.0
100
AcDbArc
 50
180.0
 51
248.6763137367055
  0
ARC
  5
2DC
330
297
100
AcDbEntity
  8
0
  6
K5LT32768
 62
     5
420
      255
370
    60
100
AcDbCircle
 10
211.6063383983637
 20
61.09968400347134
 30
0.0
 40
1.0
100
AcDbArc
 50
0.0
 51
43.98779305274523
  0
ARC
  5
2DD
330
297
100
AcDbEntity
  8
0
  6
K5LT32768
 62
     5
420
      255
370
    60
100
AcDbCircle
 10
215.6063383983637
 20
60.03830257767549
 30
0.0
 40
1.0
100
AcDbArc
 50
106.2907778510141
 51
180.0
  0
ARC
  5
2DE
330
297
100
AcDbEntity
  8
0
  6
K5LT32768
 62
     5
420
      255
370
    60
100
AcDbCircle
 10
213.6063383983637
 20
51.55763874726836
 30
0.0
 40
2.5
100
AcDbArc
 50
0.0
 51
180.0
  0
ENDBLK
  5
2E0
330
297
100
AcDbEntity
  8
0
100
AcDbBlockEnd
  0
BLOCK
  5
329
330
2E1
100
AcDbEntity
  8
0
100
AcDbBlockBegin
  2
U16
 70
     0
 10
0.0
 20
0.0
 30
0.0
  3
U16
  1

  0
ARC
  5
2E3
330
2E1
100
AcDbEntity
  8
0
  6
K5LT32768
 62
     5
420
      255
370
    60
100
AcDbCircle
 10
184.4368830413893
 20
51.55763874726836
 30
0.0
 40
15.0
100
AcDbArc
 50
180.0
 51
270.0
  0
CIRCLE
  5
2E4
330
2E1
100
AcDbEntity
  8
0
  6
K5LT32768
 62
     5
420
      255
370
    60
100
AcDbCircle
 10
184.4368830413893
 20
33.05763874726836
 30
0.0
 40
1.6
  0
CIRCLE
  5
2E5
330
2E1
100
AcDbEntity
  8
0
  6
K5LT32768
 62
     5
420
      255
370
    60
100
AcDbCircle
 10
154.1368830413864
 20
26.55763874726836
 30
0.0
 40
1.6
  0
LINE
  5
2E6
330
2E1
100
AcDbEntity
  8
0
  6
K5LT32768
 62
     5
420
      255
370
    60
100
AcDbLine
 10
150.9648057867613
 20
28.03680266335869
 30
0.0
 11
157.8999609117469
 21
42.90929082369257
 31
0.0
  0
LINE
  5
2E7
330
2E1
100
AcDbEntity
  8
0
  6
K5LT32768
 62
     5
420
      255
370
    60
100
AcDbLine
 10
157.3089602960114
 20
25.07847483117803
 30
0.0
 11
164.1085263822112
 21
39.66019135950046
 31
0.0
  0
ARC
  5
2E8
330
2E1
100
AcDbEntity
  8
0
  6
K5LT32768
 62
     5
420
      255
370
    60
100
AcDbCircle
 10
184.4368830413893
 20
51.55763874726836
 30
0.0
 40
22.0
100
AcDbArc
 50
212.3883447250853
 51
270.0
  0
ARC
  5
2E9
330
2E1
100
AcDbEntity
  8
0
  6
K5LT32768
 62
     5
420
      255
370
    60
100
AcDbCircle
 10
165.014834169249
 20
39.23757309775829
 30
0.0
 40
0.9999999999999999
100
AcDbArc
 50
32.38834472494509
 51
154.9999999999513
  0
LINE
  5
2EA
330
2E1
100
AcDbEntity
  8
0
  6
K5LT32768
 62
     5
420
      255
370
    60
100
AcDbLine
 10
158.8368830413835
 20
51.55763874726836
 30
0.0
 11
158.8368830413835
 21
47.13547344109975
 31
0.0
  0
ARC
  5
2EB
330
2E1
100
AcDbEntity
  8
0
  6
K5LT32768
 62
     5
420
      255
370
    60
100
AcDbCircle
 10
148.8368830413835
 20
47.13547344109975
 30
0.0
 40
10.0
100
AcDbArc
 50
334.9999999999918
 51
0.0
  0
ARC
  5
2EC
330
2E1
100
AcDbEntity
  8
0
  6
K5LT32768
 62
     5
420
      255
370
    60
100
AcDbCircle
 10
165.014834169249
 20
39.23757309775829
 30
0.0
 40
3.0
100
AcDbArc
 50
32.38834472494499
 51
73.7092221490859
  0
ARC
  5
2ED
330
2E1
100
AcDbEntity
  8
0
  6
K5LT32768
 62
     5
420
      255
370
    60
100
AcDbCircle
 10
148.8368830413835
 20
47.13547344109975
 30
0.0
 40
12.0
100
AcDbArc
 50
334.9999999999918
 51
357.4953894235018
  0
ARC
  5
2EE
330
2E1
100
AcDbEntity
  8
0
  6
K5LT32768
 62
     5
420
      255
370
    60
100
AcDbCircle
 10
184.4368830413893
 20
51.55763874726836
 30
0.0
 40
20.0
100
AcDbArc
 50
212.3883447250853
 51
256.3003333373438
  0
ARC
  5
2EF
330
2E1
100
AcDbEntity
  8
0
  6
K5LT32768
 62
     5
420
      255
370
    60
100
AcDbCircle
 10
184.4368830413893
 20
51.55763874726836
 30
0.0
 40
17.0
100
AcDbArc
 50
195.0177389981336
 51
255.9230564178374
  0
ARC
  5
2F0
330
2E1
100
AcDbEntity
  8
0
  6
K5LT32768
 62
     5
420
      255
370
    60
100
AcDbCircle
 10
164.1368830413864
 20
51.55763874726836
 30
0.0
 40
4.500000000000001
100
AcDbArc
 50
291.3236862635062
 51
302.0027316542174
  0
LINE
  5
2F1
330
2E1
100
AcDbEntity
  8
0
  6
K5LT32768
 62
     5
420
      255
370
    60
100
AcDbLine
 10
154.6674276844075
 20
31.24469778058119
 30
0.0
 11
159.7125764858226
 21
42.06405430020823
 31
0.0
  0
LINE
  5
2F2
330
2E1
100
AcDbEntity
  8
0
  6
K5LT32768
 62
     5
420
      255
370
    60
100
AcDbLine
 10
157.3863510454991
 20
29.97684299536195
 30
0.0
 11
162.2959108081356
 21
40.5054278829848
 31
0.0
  0
ARC
  5
2F3
330
2E1
100
AcDbEntity
  8
0
  6
K5LT32768
 62
     5
420
      255
370
    60
100
AcDbCircle
 10
154.1368830413864
 20
26.55763874726836
 30
0.0
 40
3.499999999999998
100
AcDbArc
 50
154.9999999999925
 51
335.0000000000074
  0
ARC
  5
2F4
330
2E1
100
AcDbEntity
  8
0
  6
K5LT32768
 62
     5
420
      255
370
    60
100
AcDbCircle
 10
154.1368830413864
 20
26.55763874726836
 30
0.0
 40
3.499999999999998
100
AcDbArc
 50
58.62062979172569
 51
71.37937020834558
  0
ARC
  5
2F5
330
2E1
100
AcDbEntity
  8
0
  6
K5LT32768
 62
     5
420
      255
370
    60
100
AcDbCircle
 10
184.4368830413893
 20
33.05763874726836
 30
0.0
 40
3.5
100
AcDbArc
 50
270.0
 51
90.0
  0
ARC
  5
2F6
330
2E1
100
AcDbEntity
  8
0
  6
K5LT32768
 62
     5
420
      255
370
    60
100
AcDbCircle
 10
184.4368830413893
 20
33.05763874726836
 30
0.0
 40
3.5
100
AcDbArc
 50
166.6304296903986
 51
179.4838148235778
  0
ARC
  5
2F7
330
2E1
100
AcDbEntity
  8
0
  6
K5LT32768
 62
     5
420
      255
370
    60
100
AcDbCircle
 10
155.5737354714453
 20
30.82207951883902
 30
0.0
 40
0.9999999999999994
100
AcDbArc
 50
154.9999999999513
 51
251.3793702085359
  0
ARC
  5
2F8
330
2E1
100
AcDbEntity
  8
0
  6
K5LT32768
 62
     5
420
      255
370
    60
100
AcDbCircle
 10
156.4800432584613
 20
30.39946125710412
 30
0.0
 40
1.000000000000001
100
AcDbArc
 50
238.6206297918182
 51
334.9999999999513
  0
ARC
  5
2F9
330
2E1
100
AcDbEntity
  8
0
  6
K5LT32768
 62
     5
420
      255
370
    60
100
AcDbCircle
 10
179.9370656601401
 20
33.09817928780831
 30
0.0
 40
1.000000000000003
100
AcDbArc
 50
256.300333337413
 51
359.4838148235775
  0
ARC
  5
2FA
330
2E1
100
AcDbEntity
  8
0
  6
K5LT32768
 62
     5
420
      255
370
    60
100
AcDbCircle
 10
180.0588383427254
 20
34.09817928780831
 30
0.0
 40
0.9999999999999998
100
AcDbArc
 50
346.6304296906218
 51
75.92305641779811
  0
ARC
  5
2FB
330
2E1
100
AcDbEntity
  8
0
  6
K5LT32768
 62
     5
420
      255
370
    60
100
AcDbCircle
 10
161.8244642493679
 20
46.56737629622512
 30
0.0
 40
0.9999999999999993
100
AcDbArc
 50
65.13764422722622
 51
177.4953894233666
  0
ARC
  5
2FC
330
2E1
100
AcDbEntity
  8
0
  6
K5LT32768
 62
     5
420
      255
370
    60
100
AcDbCircle
 10
167.051661366511
 20
46.89351317912951
 30
0.0
 40
1.000000000000001
100
AcDbArc
 50
15.01773899798585
 51
122.0027316543138
  0
LINE
  5
2FD
330
2E1
100
AcDbEntity
  8
0
  6
K5LT32768
 62
     5
420
      255
370
    60
100
AcDbLine
 10
163.1368830413864
 20
46.43416336429073
 30
0.0
 11
163.1368830413864
 21
42.01559349106537
 31
0.0
  0
LINE
  5
2FE
330
2E1
100
AcDbEntity
  8
0
  6
K5LT32768
 62
     5
420
      255
370
    60
100
AcDbLine
 10
165.1368830413864
 20
46.43416336429073
 30
0.0
 11
165.1368830413864
 21
43.07697491686122
 31
0.0
  0
ARC
  5
2FF
330
2E1
100
AcDbEntity
  8
0
  6
K5LT32768
 62
     5
420
      255
370
    60
100
AcDbCircle
 10
165.014834169249
 20
39.23757309775829
 30
0.0
 40
3.000000000000001
100
AcDbArc
 50
136.0122069473271
 51
154.9999999999514
  0
ARC
  5
300
330
2E1
100
AcDbEntity
  8
0
  6
K5LT32768
 62
     5
420
      255
370
    60
100
AcDbCircle
 10
164.1368830413864
 20
51.55763874726836
 30
0.0
 40
4.500000000000001
100
AcDbArc
 50
245.1376442273797
 51
248.6763137364939
  0
ARC
  5
301
330
2E1
100
AcDbEntity
  8
0
  6
K5LT32768
 62
     5
420
      255
370
    60
100
AcDbCircle
 10
162.1368830413864
 20
46.43416336429073
 30
0.0
 40
1.0
100
AcDbArc
 50
0.0
 51
68.67631373670577
  0
ARC
  5
302
330
2E1
100
AcDbEntity
  8
0
  6
K5LT32768
 62
     5
420
      255
370
    60
100
AcDbCircle
 10
166.1368830413864
 20
46.43416336429073
 30
0.0
 40
1.000000000000001
100
AcDbArc
 50
111.3236862632942
 51
180.0
  0
ARC
  5
303
330
2E1
100
AcDbEntity
  8
0
  6
K5LT32768
 62
     5
420
      255
370
    60
100
AcDbCircle
 10
162.1368830413864
 20
42.01559349106537
 30
0.0
 40
1.000000000000001
100
AcDbArc
 50
316.0122069472548
 51
0.0
  0
ARC
  5
304
330
2E1
100
AcDbEntity
  8
0
  6
K5LT32768
 62
     5
420
      255
370
    60
100
AcDbCircle
 10
166.1368830413864
 20
43.07697491686122
 30
0.0
 40
1.0
100
AcDbArc
 50
180.0
 51
253.709222148986
  0
ARC
  5
305
330
2E1
100
AcDbEntity
  8
0
  6
K5LT32768
 62
     5
420
      255
370
    60
100
AcDbCircle
 10
164.1368830413864
 20
51.55763874726836
 30
0.0
 40
2.5
100
AcDbArc
 50
180.0
 51
0.0
  0
ARC
  5
306
330
2E1
100
AcDbEntity
  8
0
  6
K5LT32768
 62
     5
420
      255
370
    60
100
AcDbCircle
 10
184.4368830413893
 20
51.55763874726836
 30
0.0
 40
15.0
100
AcDbArc
 50
90.0
 51
180.0
  0
CIRCLE
  5
307
330
2E1
100
AcDbEntity
  8
0
  6
K5LT32768
 62
     5
420
      255
370
    60
100
AcDbCircle
 10
184.4368830413893
 20
70.05763874726836
 30
0.0
 40
1.6
  0
CIRCLE
  5
308
330
2E1
100
AcDbEntity
  8
0
  6
K5LT32768
 62
     5
420
      255
370
    60
100
AcDbCircle
 10
154.1368830413864
 20
76.55763874726836
 30
0.0
 40
1.6
  0
LINE
  5
309
330
2E1
100
AcDbEntity
  8
0
  6
K5LT32768
 62
     5
420
      255
370
    60
100
AcDbLine
 10
150.9648057867613
 20
75.07847483117803
 30
0.0
 11
157.8999609117469
 21
60.20598667084414
 31
0.0
  0
LINE
  5
30A
330
2E1
100
AcDbEntity
  8
0
  6
K5LT32768
 62
     5
420
      255
370
    60
100
AcDbLine
 10
157.3089602960114
 20
78.03680266335869
 30
0.0
 11
164.1085263822112
 21
63.45508613503625
 31
0.0
  0
ARC
  5
30B
330
2E1
100
AcDbEntity
  8
0
  6
K5LT32768
 62
     5
420
      255
370
    60
100
AcDbCircle
 10
184.4368830413893
 20
51.55763874726836
 30
0.0
 40
22.0
100
AcDbArc
 50
90.0
 51
147.6116552749146
  0
ARC
  5
30C
330
2E1
100
AcDbEntity
  8
0
  6
K5LT32768
 62
     5
420
      255
370
    60
100
AcDbCircle
 10
165.014834169249
 20
63.87770439677843
 30
0.0
 40
1.000000000000001
100
AcDbArc
 50
205.0000000000484
 51
327.611655275055
  0
LINE
  5
30D
330
2E1
100
AcDbEntity
  8
0
  6
K5LT32768
 62
     5
420
      255
370
    60
100
AcDbLine
 10
158.8368830413835
 20
51.55763874726836
 30
0.0
 11
158.8368830413835
 21
55.97980405343696
 31
0.0
  0
ARC
  5
30E
330
2E1
100
AcDbEntity
  8
0
  6
K5LT32768
 62
     5
420
      255
370
    60
100
AcDbCircle
 10
148.8368830413835
 20
55.97980405343696
 30
0.0
 40
10.0
100
AcDbArc
 50
0.0
 51
25.00000000000822
  0
ARC
  5
30F
330
2E1
100
AcDbEntity
  8
0
  6
K5LT32768
 62
     5
420
      255
370
    60
100
AcDbCircle
 10
165.014834169249
 20
63.87770439677843
 30
0.0
 40
3.0
100
AcDbArc
 50
286.2907778509141
 51
327.611655275055
  0
ARC
  5
310
330
2E1
100
AcDbEntity
  8
0
  6
K5LT32768
 62
     5
420
      255
370
    60
100
AcDbCircle
 10
148.8368830413835
 20
55.97980405343696
 30
0.0
 40
12.0
100
AcDbArc
 50
2.504610576498241
 51
25.00000000000822
  0
ARC
  5
311
330
2E1
100
AcDbEntity
  8
0
  6
K5LT32768
 62
     5
420
      255
370
    60
100
AcDbCircle
 10
184.4368830413893
 20
51.55763874726836
 30
0.0
 40
20.0
100
AcDbArc
 50
103.6996666626561
 51
147.6116552749146
  0
ARC
  5
312
330
2E1
100
AcDbEntity
  8
0
  6
K5LT32768
 62
     5
420
      255
370
    60
100
AcDbCircle
 10
184.4368830413893
 20
51.55763874726836
 30
0.0
 40
17.0
100
AcDbArc
 50
104.0769435821626
 51
164.9822610018664
  0
ARC
  5
313
330
2E1
100
AcDbEntity
  8
0
  6
K5LT32768
 62
     5
420
      255
370
    60
100
AcDbCircle
 10
164.1368830413864
 20
51.55763874726836
 30
0.0
 40
4.5
100
AcDbArc
 50
57.99726834578265
 51
68.67631373649388
  0
LINE
  5
314
330
2E1
100
AcDbEntity
  8
0
  6
K5LT32768
 62
     5
420
      255
370
    60
100
AcDbLine
 10
154.6674276844075
 20
71.87057971395552
 30
0.0
 11
159.7125764858226
 21
61.05122319432849
 31
0.0
  0
LINE
  5
315
330
2E1
100
AcDbEntity
  8
0
  6
K5LT32768
 62
     5
420
      255
370
    60
100
AcDbLine
 10
157.3863510454991
 20
73.13843449917476
 30
0.0
 11
162.2959108081356
 21
62.60984961155191
 31
0.0
  0
ARC
  5
316
330
2E1
100
AcDbEntity
  8
0
  6
K5LT32768
 62
     5
420
      255
370
    60
100
AcDbCircle
 10
154.1368830413864
 20
76.55763874726836
 30
0.0
 40
3.5
100
AcDbArc
 50
24.99999999999259
 51
205.0000000000075
  0
ARC
  5
317
330
2E1
100
AcDbEntity
  8
0
  6
K5LT32768
 62
     5
420
      255
370
    60
100
AcDbCircle
 10
154.1368830413864
 20
76.55763874726836
 30
0.0
 40
3.499999999999999
100
AcDbArc
 50
288.6206297916544
 51
301.3793702082743
  0
ARC
  5
318
330
2E1
100
AcDbEntity
  8
0
  6
K5LT32768
 62
     5
420
      255
370
    60
100
AcDbCircle
 10
184.4368830413893
 20
70.05763874726836
 30
0.0
 40
3.5
100
AcDbArc
 50
270.0
 51
90.0
  0
ARC
  5
319
330
2E1
100
AcDbEntity
  8
0
  6
K5LT32768
 62
     5
420
      255
370
    60
100
AcDbCircle
 10
184.4368830413893
 20
70.05763874726836
 30
0.0
 40
3.5
100
AcDbArc
 50
180.5161851764221
 51
193.3695703096014
  0
ARC
  5
31A
330
2E1
100
AcDbEntity
  8
0
  6
K5LT32768
 62
     5
420
      255
370
    60
100
AcDbCircle
 10
155.5737354714453
 20
72.2931979756977
 30
0.0
 40
0.9999999999999999
100
AcDbArc
 50
108.6206297914641
 51
205.0000000000484
  0
ARC
  5
31B
330
2E1
100
AcDbEntity
  8
0
  6
K5LT32768
 62
     5
420
      255
370
    60
100
AcDbCircle
 10
156.4800432584613
 20
72.71581623743259
 30
0.0
 40
0.9999999999999986
100
AcDbArc
 50
25.0000000000486
 51
121.3793702081818
  0
ARC
  5
31C
330
2E1
100
AcDbEntity
  8
0
  6
K5LT32768
 62
     5
420
      255
370
    60
100
AcDbCircle
 10
179.9370656601401
 20
70.0170982067284
 30
0.0
 40
0.9999999999999997
100
AcDbArc
 50
0.5161851764221764
 51
103.699666662587
  0
ARC
  5
31D
330
2E1
100
AcDbEntity
  8
0
  6
K5LT32768
 62
     5
420
      255
370
    60
100
AcDbCircle
 10
180.0588383427254
 20
69.0170982067284
 30
0.0
 40
1.0
100
AcDbArc
 50
284.0769435822019
 51
13.36957030937827
  0
ARC
  5
31E
330
2E1
100
AcDbEntity
  8
0
  6
K5LT32768
 62
     5
420
      255
370
    60
100
AcDbCircle
 10
161.8244642493679
 20
56.54790119831159
 30
0.0
 40
0.9999999999999982
100
AcDbArc
 50
182.5046105766334
 51
294.8623557727738
  0
ARC
  5
31F
330
2E1
100
AcDbEntity
  8
0
  6
K5LT32768
 62
     5
420
      255
370
    60
100
AcDbCircle
 10
167.051661366511
 20
56.2217643154072
 30
0.0
 40
0.9999999999999998
100
AcDbArc
 50
237.9972683456863
 51
344.9822610020142
  0
LINE
  5
320
330
2E1
100
AcDbEntity
  8
0
  6
K5LT32768
 62
     5
420
      255
370
    60
100
AcDbLine
 10
163.1368830413864
 20
56.68111413024599
 30
0.0
 11
163.1368830413864
 21
61.09968400347134
 31
0.0
  0
LINE
  5
321
330
2E1
100
AcDbEntity
  8
0
  6
K5LT32768
 62
     5
420
      255
370
    60
100
AcDbLine
 10
165.1368830413864
 20
56.68111413024599
 30
0.0
 11
165.1368830413864
 21
60.03830257767549
 31
0.0
  0
ARC
  5
322
330
2E1
100
AcDbEntity
  8
0
  6
K5LT32768
 62
     5
420
      255
370
    60
100
AcDbCircle
 10
165.014834169249
 20
63.87770439677843
 30
0.0
 40
3.000000000000001
100
AcDbArc
 50
205.0000000000484
 51
223.9877930526729
  0
ARC
  5
323
330
2E1
100
AcDbEntity
  8
0
  6
K5LT32768
 62
     5
420
      255
370
    60
100
AcDbCircle
 10
164.1368830413864
 20
51.55763874726836
 30
0.0
 40
4.500000000000001
100
AcDbArc
 50
111.3236862635061
 51
114.8623557726203
  0
ARC
  5
324
330
2E1
100
AcDbEntity
  8
0
  6
K5LT32768
 62
     5
420
      255
370
    60
100
AcDbCircle
 10
162.1368830413864
 20
56.68111413024599
 30
0.0
 40
1.000000000000001
100
AcDbArc
 50
291.3236862632942
 51
0.0
  0
ARC
  5
325
330
2E1
100
AcDbEntity
  8
0
  6
K5LT32768
 62
     5
420
      255
370
    60
100
AcDbCircle
 10
166.1368830413864
 20
56.68111413024599
 30
0.0
 40
1.0
100
AcDbArc
 50
180.0
 51
248.6763137367058
  0
ARC
  5
326
330
2E1
100
AcDbEntity
  8
0
  6
K5LT32768
 62
     5
420
      255
370
    60
100
AcDbCircle
 10
162.1368830413864
 20
61.09968400347134
 30
0.0
 40
1.0
100
AcDbArc
 50
0.0
 51
43.98779305274523
  0
ARC
  5
327
330
2E1
100
AcDbEntity
  8
0
  6
K5LT32768
 62
     5
420
      255
370
    60
100
AcDbCircle
 10
166.1368830413864
 20
60.03830257767549
 30
0.0
 40
1.0
100
AcDbArc
 50
106.2907778510141
 51
180.0
  0
ARC
  5
328
330
2E1
100
AcDbEntity
  8
0
  6
K5LT32768
 62
     5
420
      255
370
    60
100
AcDbCircle
 10
164.1368830413864
 20
51.55763874726836
 30
0.0
 40
2.5
100
AcDbArc
 50
0.0
 51
180.0
  0
ENDBLK
  5
32A
330
2E1
100
AcDbEntity
  8
0
100
AcDbBlockEnd
  0
BLOCK
  5
569
330
32B
100
AcDbEntity
  8
0
100
AcDbBlockBegin
  2
U17
 70
     0
 10
0.0
 20
0.0
 30
0.0
  3
U17
  1

  0
LINE
  5
32D
330
32B
100
AcDbEntity
  8
0
  6
K5LT32768
 62
     5
420
      255
370
    60
100
AcDbLine
 10
365.0215585506594
 20
-0.0000000003274181
 30
0.0
 11
365.0215585506594
 21
3.497917881410103
 31
0.0
  0
LINE
  5
32E
330
32B
100
AcDbEntity
  8
0
  6
K5LT32768
 62
     5
420
      255
370
    60
100
AcDbLine
 10
365.0215585506594
 20
-0.0000000003274181
 30
0.0
 11
365.0215585506594
 21
-3.497917881410103
 31
0.0
  0
LINE
  5
32F
330
32B
100
AcDbEntity
  8
0
  6
K5LT32768
 62
     5
420
      255
370
    60
100
AcDbLine
 10
410.3199451336623
 20
5.550175191514427
 30
0.0
 11
410.3199451336623
 21
5.552441624444327
 31
0.0
  0
LINE
  5
330
330
32B
100
AcDbEntity
  8
0
  6
K5LT32768
 62
     5
420
      255
370
    60
100
AcDbLine
 10
-10.5
 20
56.0
 30
0.0
 11
-8.000000000007276
 21
56.0
 31
0.0
  0
LINE
  5
331
330
32B
100
AcDbEntity
  8
0
  6
K5LT32768
 62
     5
420
      255
370
    60
100
AcDbLine
 10
-10.5
 20
56.0
 30
0.0
 11
-8.000000000007276
 21
56.0
 31
0.0
  0
LINE
  5
332
330
32B
100
AcDbEntity
  8
0
  6
K5LT32768
 62
     5
420
      255
370
    60
100
AcDbLine
 10
29.90000000000146
 20
56.0
 30
0.0
 11
37.5
 21
56.0
 31
0.0
  0
LINE
  5
333
330
32B
100
AcDbEntity
  8
0
  6
K5LT32768
 62
     5
420
      255
370
    60
100
AcDbLine
 10
122.0429399400018
 20
5.339745962148299
 30
0.0
 11
79.99999999999272
 21
29.61324865405186
 31
0.0
  0
LINE
  5
334
330
32B
100
AcDbEntity
  8
0
  6
K5LT32768
 62
     5
420
      255
370
    60
100
AcDbLine
 10
74.01496041596693
 20
40.0
 30
0.0
 11
65.99999999999272
 21
40.0
 31
0.0
  0
LINE
  5
335
330
32B
100
AcDbEntity
  8
0
  6
K5LT32768
 62
     5
420
      255
370
    60
100
AcDbLine
 10
65.99999999999272
 20
42.0
 30
0.0
 11
74.99999999999272
 21
42.0
 31
0.0
  0
LINE
  5
336
330
32B
100
AcDbEntity
  8
0
  6
K5LT32768
 62
     5
420
      255
370
    60
100
AcDbLine
 10
74.99999999999272
 20
42.0
 30
0.0
 11
80.62771730568056
 21
42.00000000000728
 31
0.0
  0
ARC
  5
337
330
32B
100
AcDbEntity
  8
0
  6
K5LT32768
 62
     5
420
      255
370
    60
100
AcDbCircle
 10
-53.77502783967793
 20
-11.0
 30
0.0
 40
10.0
100
AcDbArc
 50
90.0
 51
119.9264348666169
  0
ARC
  5
338
330
32B
100
AcDbEntity
  8
0
  6
K5LT32768
 62
     5
420
      255
370
    60
100
AcDbCircle
 10
-70.0
 20
7.0
 30
0.0
 40
13.0
100
AcDbArc
 50
180.0
 51
245.3756816478361
  0
LINE
  5
339
330
32B
100
AcDbEntity
  8
0
  6
K5LT32768
 62
     5
420
      255
370
    60
100
AcDbLine
 10
-74.0
 20
-2.374281585463905
 30
0.0
 11
-74.0
 21
-3.908712114636728
 31
0.0
  0
ARC
  5
33A
330
32B
100
AcDbEntity
  8
0
  6
K5LT32768
 62
     5
420
      255
370
    60
100
AcDbCircle
 10
-75.0
 20
-3.908712114636728
 30
0.0
 40
1.000000000000009
100
AcDbArc
 50
245.3756816478699
 51
0.0
  0
ARC
  5
33B
330
32B
100
AcDbEntity
  8
0
  6
K5LT32768
 62
     5
420
      255
370
    60
100
AcDbCircle
 10
-73.0
 20
-2.374281585463905
 30
0.0
 40
0.999999999999995
100
AcDbArc
 50
53.65879690617832
 51
180.0
  0
ARC
  5
33C
330
32B
100
AcDbEntity
  8
0
  6
K5LT32768
 62
     5
420
      255
370
    60
100
AcDbCircle
 10
-65.0
 20
8.5
 30
0.0
 40
12.5
100
AcDbArc
 50
233.6587969062179
 51
299.9264348666131
  0
ARC
  5
33D
330
32B
100
AcDbEntity
  8
0
  6
K5LT32768
 62
     5
420
      255
370
    60
100
AcDbCircle
 10
-67.0
 20
7.0
 30
0.0
 40
16.0
100
AcDbArc
 50
111.4497653889778
 51
180.0
  0
ARC
  5
33E
330
32B
100
AcDbEntity
  8
0
  6
K5LT32768
 62
     5
420
      255
370
    60
100
AcDbCircle
 10
-10.5
 20
-14.0
 30
0.0
 40
70.0
100
AcDbArc
 50
90.0
 51
145.5984012508824
  0
ARC
  5
33F
330
32B
100
AcDbEntity
  8
0
  6
K5LT32768
 62
     5
420
      255
370
    60
100
AcDbCircle
 10
-76.50781867491605
 20
31.19920213653677
 30
0.0
 40
9.999999999999995
100
AcDbArc
 50
291.4497653889769
 51
325.5984012508819
  0
LINE
  5
340
330
32B
100
AcDbEntity
  8
0
  6
K5LT32768
 62
     5
420
      255
370
    60
100
AcDbLine
 10
379.2180199935465
 20
40.99999999999272
 30
0.0
 11
379.2180199935465
 21
38.65685424948606
 31
0.0
  0
LINE
  5
341
330
32B
100
AcDbEntity
  8
0
  6
K5LT32768
 62
     5
420
      255
370
    60
100
AcDbLine
 10
19.99999999999272
 20
50.0
 30
0.0
 11
19.99999999999272
 21
43.0
 31
0.0
  0
LINE
  5
342
330
32B
100
AcDbEntity
  8
0
  6
K5LT32768
 62
     5
420
      255
370
    60
100
AcDbLine
 10
26.0
 20
56.0
 30
0.0
 11
37.5
 21
56.0
 31
0.0
  0
LINE
  5
343
330
32B
100
AcDbEntity
  8
0
  6
K5LT32768
 62
     5
420
      255
370
    60
100
AcDbLine
 10
-10.5
 20
56.0
 30
0.0
 11
-8.000000000007276
 21
56.0
 31
0.0
  0
LINE
  5
344
330
32B
100
AcDbEntity
  8
0
  6
K5LT32768
 62
     5
420
      255
370
    60
100
AcDbLine
 10
1.999999999992724
 20
51.0
 30
0.0
 11
15.99999999999272
 21
51.0
 31
0.0
  0
LINE
  5
345
330
32B
100
AcDbEntity
  8
0
  6
K5LT32768
 62
     5
420
      255
370
    60
100
AcDbLine
 10
15.99999999999272
 20
43.0
 30
0.0
 11
19.99999999999272
 21
43.0
 31
0.0
  0
ARC
  5
346
330
32B
100
AcDbEntity
  8
0
  6
K5LT32768
 62
     5
420
      255
370
    60
100
AcDbCircle
 10
25.99999999999272
 20
50.0
 30
0.0
 40
6.0
100
AcDbArc
 50
90.0
 51
180.0
  0
CIRCLE
  5
347
330
32B
100
AcDbEntity
  8
0
  6
K5LT32768
 62
     5
420
      255
370
    60
100
AcDbCircle
 10
-12.0
 20
51.0
 30
0.0
 40
1.55
  0
CIRCLE
  5
348
330
32B
100
AcDbEntity
  8
0
  6
K5LT32768
 62
     5
420
      255
370
    60
100
AcDbCircle
 10
30.0
 20
51.0
 30
0.0
 40
1.55
  0
CIRCLE
  5
349
330
32B
100
AcDbEntity
  8
0
  6
K5LT32768
 62
     5
420
      255
370
    60
100
AcDbCircle
 10
0.0
 20
0.0
 30
0.0
 40
4.5
  0
CIRCLE
  5
34A
330
32B
100
AcDbEntity
  8
0
  6
K5LT32768
 62
     5
420
      255
370
    60
100
AcDbCircle
 10
13.59999999999854
 20
25.0
 30
0.0
 40
1.6
  0
CIRCLE
  5
34B
330
32B
100
AcDbEntity
  8
0
  6
K5LT32768
 62
     5
420
      255
370
    60
100
AcDbCircle
 10
43.90000000000146
 20
-18.5
 30
0.0
 40
1.6
  0
CIRCLE
  5
34C
330
32B
100
AcDbEntity
  8
0
  6
K5LT32768
 62
     5
420
      255
370
    60
100
AcDbCircle
 10
34.40000000000146
 20
0.0
 30
0.0
 40
1.55
  0
CIRCLE
  5
34D
330
32B
100
AcDbEntity
  8
0
  6
K5LT32768
 62
     5
420
      255
370
    60
100
AcDbCircle
 10
53.40000000000146
 20
0.0
 30
0.0
 40
1.55
  0
CIRCLE
  5
34E
330
32B
100
AcDbEntity
  8
0
  6
K5LT32768
 62
     5
420
      255
370
    60
100
AcDbCircle
 10
50.61751442126842
 20
-6.717514421274245
 30
0.0
 40
1.55
  0
CIRCLE
  5
34F
330
32B
100
AcDbEntity
  8
0
  6
K5LT32768
 62
     5
420
      255
370
    60
100
AcDbCircle
 10
37.18248557872721
 20
6.717514421274245
 30
0.0
 40
1.55
  0
CIRCLE
  5
350
330
32B
100
AcDbEntity
  8
0
  6
K5LT32768
 62
     5
420
      255
370
    60
100
AcDbCircle
 10
49.55685424948751
 20
5.656854249493335
 30
0.0
 40
1.3
  0
CIRCLE
  5
351
330
32B
100
AcDbEntity
  8
0
  6
K5LT32768
 62
     5
420
      255
370
    60
100
AcDbCircle
 10
43.90000000000146
 20
8.0
 30
0.0
 40
1.3
  0
CIRCLE
  5
352
330
32B
100
AcDbEntity
  8
0
  6
K5LT32768
 62
     5
420
      255
370
    60
100
AcDbCircle
 10
38.24314575050812
 20
-5.656854249493335
 30
0.0
 40
1.3
  0
CIRCLE
  5
353
330
32B
100
AcDbEntity
  8
0
  6
K5LT32768
 62
     5
420
      255
370
    60
100
AcDbCircle
 10
43.90000000000146
 20
-8.0
 30
0.0
 40
1.3
  0
CIRCLE
  5
354
330
32B
100
AcDbEntity
  8
0
  6
K5LT32768
 62
     5
420
      255
370
    60
100
AcDbCircle
 10
43.90000000000146
 20
0.0
 30
0.0
 40
3.0
  0
CIRCLE
  5
355
330
32B
100
AcDbEntity
  8
0
  6
K5LT32768
 62
     5
420
      255
370
    60
100
AcDbCircle
 10
13.59999999999854
 20
-25.0
 30
0.0
 40
1.6
  0
CIRCLE
  5
356
330
32B
100
AcDbEntity
  8
0
  6
K5LT32768
 62
     5
420
      255
370
    60
100
AcDbCircle
 10
43.90000000000146
 20
18.5
 30
0.0
 40
1.6
  0
CIRCLE
  5
357
330
32B
100
AcDbEntity
  8
0
  6
K5LT32768
 62
     5
420
      255
370
    60
100
AcDbCircle
 10
23.59999999999854
 20
0.0
 30
0.0
 40
2.5
  0
CIRCLE
  5
358
330
32B
100
AcDbEntity
  8
0
  6
K5LT32768
 62
     5
420
      255
370
    60
100
AcDbCircle
 10
0.0
 20
9.5
 30
0.0
 40
1.0
  0
CIRCLE
  5
359
330
32B
100
AcDbEntity
  8
0
  6
K5LT32768
 62
     5
420
      255
370
    60
100
AcDbCircle
 10
0.0
 20
-9.5
 30
0.0
 40
1.0
  0
CIRCLE
  5
35A
330
32B
100
AcDbEntity
  8
0
  6
K5LT32768
 62
     5
420
      255
370
    60
100
AcDbCircle
 10
-8.227241335953295
 20
-4.75
 30
0.0
 40
1.0
  0
CIRCLE
  5
35B
330
32B
100
AcDbEntity
  8
0
  6
K5LT32768
 62
     5
420
      255
370
    60
100
AcDbCircle
 10
-8.227241335953295
 20
4.75
 30
0.0
 40
1.0
  0
CIRCLE
  5
35C
330
32B
100
AcDbEntity
  8
0
  6
K5LT32768
 62
     5
420
      255
370
    60
100
AcDbCircle
 10
8.227241335953295
 20
-4.75
 30
0.0
 40
1.0
  0
CIRCLE
  5
35D
330
32B
100
AcDbEntity
  8
0
  6
K5LT32768
 62
     5
420
      255
370
    60
100
AcDbCircle
 10
8.227241335953295
 20
4.75
 30
0.0
 40
1.0
  0
ARC
  5
35E
330
32B
100
AcDbEntity
  8
0
  6
K5LT32768
 62
     5
420
      255
370
    60
100
AcDbCircle
 10
74.0149604159742
 20
39.0
 30
0.0
 40
0.9999999999999981
100
AcDbArc
 50
2.988562592506481
 51
90.0
  0
ARC
  5
35F
330
32B
100
AcDbEntity
  8
0
  6
K5LT32768
 62
     5
420
      255
370
    60
100
AcDbCircle
 10
37.5
 20
-44.0
 30
0.0
 40
100.0
100
AcDbArc
 50
63.89109432239098
 51
90.0
  0
ARC
  5
360
330
32B
100
AcDbEntity
  8
0
  6
K5LT32768
 62
     5
420
      255
370
    60
100
AcDbCircle
 10
43.90000000000146
 20
84.0
 30
0.0
 40
119.9999999999973
100
AcDbArc
 50
226.9509201997659
 51
274.1998157618841
  0
ARC
  5
361
330
32B
100
AcDbEntity
  8
0
  6
K5LT32768
 62
     5
420
      255
370
    60
100
AcDbCircle
 10
402.0015585507062
 20
0.0
 30
0.0
 40
10.0
100
AcDbArc
 50
270.0
 51
0.0
  0
LINE
  5
362
330
32B
100
AcDbEntity
  8
0
  6
K5LT32768
 62
     5
420
      255
370
    60
100
AcDbLine
 10
378.2180199935465
 20
41.99999999999272
 30
0.0
 11
367.003212482683
 21
41.99999999998545
 31
0.0
  0
LINE
  5
363
330
32B
100
AcDbEntity
  8
0
  6
K5LT32768
 62
     5
420
      255
370
    60
100
AcDbLine
 10
358.9999999999927
 20
41.99999999998545
 30
0.0
 11
358.9999999999927
 21
43.99999999997817
 31
0.0
  0
LINE
  5
364
330
32B
100
AcDbEntity
  8
0
  6
K5LT32768
 62
     5
420
      255
370
    60
100
AcDbLine
 10
367.003212482683
 20
41.99999999998545
 30
0.0
 11
367.0032124826903
 21
43.99999999998545
 31
0.0
  0
LINE
  5
365
330
32B
100
AcDbEntity
  8
0
  6
K5LT32768
 62
     5
420
      255
370
    60
100
AcDbLine
 10
359.0032124826903
 20
43.99999999997817
 30
0.0
 11
356.6032124826961
 21
43.9999999999709
 31
0.0
  0
LINE
  5
366
330
32B
100
AcDbEntity
  8
0
  6
K5LT32768
 62
     5
420
      255
370
    60
100
AcDbLine
 10
369.4032124826917
 20
47.99999999998545
 30
0.0
 11
356.6032124826888
 21
47.99999999997817
 31
0.0
  0
LINE
  5
367
330
32B
100
AcDbEntity
  8
0
  6
K5LT32768
 62
     5
420
      255
370
    60
100
AcDbLine
 10
369.403212482699
 20
43.99999999998545
 30
0.0
 11
367.0032124826903
 21
43.99999999998545
 31
0.0
  0
LINE
  5
368
330
32B
100
AcDbEntity
  8
0
  6
K5LT32768
 62
     5
420
      255
370
    60
100
AcDbLine
 10
356.0032124826903
 20
44.59999999997672
 30
0.0
 11
356.0032124826903
 21
47.39999999997963
 31
0.0
  0
LINE
  5
369
330
32B
100
AcDbEntity
  8
0
  6
K5LT32768
 62
     5
420
      255
370
    60
100
AcDbLine
 10
370.0032124826903
 20
44.59999999997672
 30
0.0
 11
370.0032124826903
 21
47.3999999999869
 31
0.0
  0
LINE
  5
36A
330
32B
100
AcDbEntity
  8
0
  6
K5LT32768
 62
     5
420
      255
370
    60
100
AcDbLine
 10
359.0032124826903
 20
43.99999999997817
 30
0.0
 11
356.6032124826961
 21
43.99999999997817
 31
0.0
  0
ARC
  5
36B
330
32B
100
AcDbEntity
  8
0
  6
K5LT32768
 62
     5
420
      255
370
    60
100
AcDbCircle
 10
356.6032124826888
 20
44.59999999997672
 30
0.0
 40
0.6000000000000227
100
AcDbArc
 50
180.0
 51
270.0
  0
ARC
  5
36C
330
32B
100
AcDbEntity
  8
0
  6
K5LT32768
 62
     5
420
      255
370
    60
100
AcDbCircle
 10
356.6032124826888
 20
47.39999999997963
 30
0.0
 40
0.5999999999999943
100
AcDbArc
 50
90.0
 51
180.0
  0
ARC
  5
36D
330
32B
100
AcDbEntity
  8
0
  6
K5LT32768
 62
     5
420
      255
370
    60
100
AcDbCircle
 10
369.4032124826917
 20
47.3999999999869
 30
0.0
 40
0.6000000000000227
100
AcDbArc
 50
0.0
 51
90.0
  0
ARC
  5
36E
330
32B
100
AcDbEntity
  8
0
  6
K5LT32768
 62
     5
420
      255
370
    60
100
AcDbCircle
 10
369.4032124826917
 20
44.59999999998399
 30
0.0
 40
0.5999999999999943
100
AcDbArc
 50
270.0
 51
0.0
  0
LINE
  5
36F
330
32B
100
AcDbEntity
  8
0
  6
K5LT32768
 62
     5
420
      255
370
    60
100
AcDbLine
 10
292.7861562360558
 20
4.936922129629238
 30
0.0
 11
349.5357095704385
 21
31.39967344633624
 31
0.0
  0
ARC
  5
370
330
32B
100
AcDbEntity
  8
0
  6
K5LT32768
 62
     5
420
      255
370
    60
100
AcDbCircle
 10
402.0015585507062
 20
0.0
 30
0.0
 40
10.0
100
AcDbArc
 50
0.0
 51
90.0
  0
LINE
  5
371
330
32B
100
AcDbEntity
  8
0
  6
K5LT32768
 62
     5
420
      255
370
    60
100
AcDbLine
 10
402.0015585507062
 20
10.0
 30
0.0
 11
383.0015585507135
 21
10.0
 31
0.0
  0
CIRCLE
  5
372
330
32B
100
AcDbEntity
  8
0
  6
K5LT32768
 62
     5
420
      255
370
    60
100
AcDbCircle
 10
402.0015585507062
 20
0.0
 30
0.0
 40
4.5
  0
LINE
  5
373
330
32B
100
AcDbEntity
  8
0
  6
K5LT32768
 62
     5
420
      255
370
    60
100
AcDbLine
 10
15.99999999999272
 20
43.0
 30
0.0
 11
15.99999999999272
 21
51.0
 31
0.0
  0
LINE
  5
374
330
32B
100
AcDbEntity
  8
0
  6
K5LT32768
 62
     5
420
      255
370
    60
100
AcDbLine
 10
75.01360037815903
 20
39.05213660831942
 30
0.0
 11
75.01360037815903
 21
37.75213660835288
 31
0.0
  0
LINE
  5
375
330
32B
100
AcDbEntity
  8
0
  6
K5LT32768
 62
     5
420
      255
370
    60
100
AcDbLine
 10
379.2180199935465
 20
40.99999999999272
 30
0.0
 11
379.2180199935465
 21
39.99999999999272
 31
0.0
  0
LINE
  5
376
330
32B
100
AcDbEntity
  8
0
  6
K5LT32768
 62
     5
420
      255
370
    60
100
AcDbLine
 10
378.0464471182859
 20
35.82842712473939
 30
0.0
 11
375.9304907388432
 21
33.71247074528947
 31
0.0
  0
LINE
  5
377
330
32B
100
AcDbEntity
  8
0
  6
K5LT32768
 62
     5
420
      255
370
    60
100
AcDbLine
 10
373.0015585507062
 20
20.0
 30
0.0
 11
373.0015585507062
 21
26.64140293342643
 31
0.0
  0
ARC
  5
378
330
32B
100
AcDbEntity
  8
0
  6
K5LT32768
 62
     5
420
      255
370
    60
100
AcDbCircle
 10
383.0015585507062
 20
26.64140293342643
 30
0.0
 40
10.0
100
AcDbArc
 50
135.0
 51
180.0
  0
ARC
  5
379
330
32B
100
AcDbEntity
  8
0
  6
K5LT32768
 62
     5
420
      255
370
    60
100
AcDbCircle
 10
383.0015585507062
 20
20.0
 30
0.0
 40
10.0
100
AcDbArc
 50
180.0
 51
270.0
  0
ARC
  5
37A
330
32B
100
AcDbEntity
  8
0
  6
K5LT32768
 62
     5
420
      255
370
    60
100
AcDbCircle
 10
375.2180199935465
 20
38.65685424948606
 30
0.0
 40
4.000000000000012
100
AcDbArc
 50
315.0000000000003
 51
0.0
  0
CIRCLE
  5
37B
330
32B
100
AcDbEntity
  8
0
  6
K5LT32768
 62
     5
420
      255
370
    60
100
AcDbCircle
 10
359.5215585500191
 20
2.999999999992724
 30
0.0
 40
1.000000000160071
  0
CIRCLE
  5
37C
330
32B
100
AcDbEntity
  8
0
  6
K5LT32768
 62
     5
420
      255
370
    60
100
AcDbCircle
 10
359.5215585504047
 20
-3.000000000007276
 30
0.0
 40
1.000000000160071
  0
CIRCLE
  5
37D
330
32B
100
AcDbEntity
  8
0
  6
K5LT32768
 62
     5
420
      255
370
    60
100
AcDbCircle
 10
360.4715585500307
 20
0.000000000007276
 30
0.0
 40
0.9999999999982341
  0
LINE
  5
37E
330
32B
100
AcDbEntity
  8
0
  6
K5LT32768
 62
     5
420
      255
370
    60
100
AcDbLine
 10
358.0215585506594
 20
-0.0000000003274181
 30
0.0
 11
358.0215585506521
 21
5.424999999675492
 31
0.0
  0
LINE
  5
37F
330
32B
100
AcDbEntity
  8
0
  6
K5LT32768
 62
     5
420
      255
370
    60
100
AcDbLine
 10
358.0215585506594
 20
-0.0000000003274181
 30
0.0
 11
358.0215585506667
 21
-5.425000000323053
 31
0.0
  0
ARC
  5
380
330
32B
100
AcDbEntity
  8
0
  6
K5LT32768
 62
     5
420
      255
370
    60
100
AcDbCircle
 10
357.6215585506579
 20
5.424999999668216
 30
0.0
 40
0.3999999999999773
100
AcDbArc
 50
0.0
 51
90.0
  0
ARC
  5
381
330
32B
100
AcDbEntity
  8
0
  6
K5LT32768
 62
     5
420
      255
370
    60
100
AcDbCircle
 10
357.6215585506652
 20
-5.425000000315777
 30
0.0
 40
0.4000000000000057
100
AcDbArc
 50
270.0
 51
0.0
  0
CIRCLE
  5
382
330
32B
100
AcDbEntity
  8
0
  6
K5LT32768
 62
     5
420
      255
370
    60
100
AcDbCircle
 10
332.7215585505037
 20
3.000000000014552
 30
0.0
 40
1.000000000160071
  0
CIRCLE
  5
383
330
32B
100
AcDbEntity
  8
0
  6
K5LT32768
 62
     5
420
      255
370
    60
100
AcDbCircle
 10
332.7215585501181
 20
-3.000000000007276
 30
0.0
 40
1.000000000160071
  0
CIRCLE
  5
384
330
32B
100
AcDbEntity
  8
0
  6
K5LT32768
 62
     5
420
      255
370
    60
100
AcDbCircle
 10
331.7715585504848
 20
-0.000000000007276
 30
0.0
 40
0.9999999999982341
  0
LINE
  5
385
330
32B
100
AcDbEntity
  8
0
  6
K5LT32768
 62
     5
420
      255
370
    60
100
AcDbLine
 10
334.221558549878
 20
-0.0000000003128662
 30
0.0
 11
334.2215585498707
 21
5.424999999682768
 31
0.0
  0
LINE
  5
386
330
32B
100
AcDbEntity
  8
0
  6
K5LT32768
 62
     5
420
      255
370
    60
100
AcDbLine
 10
334.221558549878
 20
-0.0000000003128662
 30
0.0
 11
334.2215585498634
 21
-5.425000000330328
 31
0.0
  0
ARC
  5
387
330
32B
100
AcDbEntity
  8
0
  6
K5LT32768
 62
     5
420
      255
370
    60
100
AcDbCircle
 10
334.6215585498721
 20
5.424999999675492
 30
0.0
 40
0.4000000000000057
100
AcDbArc
 50
90.0
 51
180.0
  0
ARC
  5
388
330
32B
100
AcDbEntity
  8
0
  6
K5LT32768
 62
     5
420
      255
370
    60
100
AcDbCircle
 10
334.6215585498649
 20
-5.425000000323053
 30
0.0
 40
0.3999999999999773
100
AcDbArc
 50
180.0
 51
270.0
  0
LINE
  5
389
330
32B
100
AcDbEntity
  8
0
  6
K5LT32768
 62
     5
420
      255
370
    60
100
AcDbLine
 10
334.6215585498649
 20
5.824999999684223
 30
0.0
 11
357.7215585506565
 21
5.824999999669672
 31
0.0
  0
LINE
  5
38A
330
32B
100
AcDbEntity
  8
0
  6
K5LT32768
 62
     5
420
      255
370
    60
100
AcDbLine
 10
334.6215585498794
 20
-5.825000000324508
 30
0.0
 11
357.721558550671
 21
-5.825000000331784
 31
0.0
  0
ARC
  5
38B
330
32B
100
AcDbEntity
  8
0
  6
K5LT32768
 62
     5
420
      255
370
    60
100
AcDbCircle
 10
402.0015585507062
 20
0.0
 30
0.0
 40
9.999999999999943
100
AcDbArc
 50
270.0
 51
90.0
  0
LINE
  5
38C
330
32B
100
AcDbEntity
  8
0
  6
K5LT32768
 62
     5
420
      255
370
    60
100
AcDbLine
 10
-2.000000000007276
 20
50.0
 30
0.0
 11
-2.000000000007276
 21
43.0
 31
0.0
  0
LINE
  5
38D
330
32B
100
AcDbEntity
  8
0
  6
K5LT32768
 62
     5
420
      255
370
    60
100
AcDbLine
 10
1.999999999992724
 20
43.0
 30
0.0
 11
-2.000000000007276
 21
43.0
 31
0.0
  0
ARC
  5
38E
330
32B
100
AcDbEntity
  8
0
  6
K5LT32768
 62
     5
420
      255
370
    60
100
AcDbCircle
 10
-8.000000000007276
 20
50.0
 30
0.0
 40
6.0
100
AcDbArc
 50
0.0
 51
90.0
  0
LINE
  5
38F
330
32B
100
AcDbEntity
  8
0
  6
K5LT32768
 62
     5
420
      255
370
    60
100
AcDbLine
 10
1.999999999992724
 20
43.0
 30
0.0
 11
1.999999999992724
 21
51.0
 31
0.0
  0
LINE
  5
390
330
32B
100
AcDbEntity
  8
0
  6
K5LT32768
 62
     5
420
      255
370
    60
100
AcDbLine
 10
65.99999999999272
 20
40.0
 30
0.0
 11
65.99999999999272
 21
42.0
 31
0.0
  0
ARC
  5
391
330
32B
100
AcDbEntity
  8
0
  6
K5LT32768
 62
     5
420
      255
370
    60
100
AcDbCircle
 10
80.62771730568056
 20
44.00000000000728
 30
0.0
 40
2.0
100
AcDbArc
 50
270.0
 51
63.89109432245277
  0
LINE
  5
392
330
32B
100
AcDbEntity
  8
0
  6
K5LT32768
 62
     5
420
      255
370
    60
100
AcDbLine
 10
352.9999999999927
 20
40.99999999999272
 30
0.0
 11
352.9999999999927
 21
36.83752016855578
 31
0.0
  0
LINE
  5
393
330
32B
100
AcDbEntity
  8
0
  6
K5LT32768
 62
     5
420
      255
370
    60
100
AcDbLine
 10
353.9999999999927
 20
41.99999999999272
 30
0.0
 11
358.9999999999927
 21
41.99999999999272
 31
0.0
  0
ARC
  5
394
330
32B
100
AcDbEntity
  8
0
  6
K5LT32768
 62
     5
420
      255
370
    60
100
AcDbCircle
 10
353.9999999999927
 20
40.99999999999272
 30
0.0
 40
1.0
100
AcDbArc
 50
90.0
 51
180.0
  0
ARC
  5
395
330
32B
100
AcDbEntity
  8
0
  6
K5LT32768
 62
     5
420
      255
370
    60
100
AcDbCircle
 10
378.2180199935465
 20
40.99999999999272
 30
0.0
 40
1.0
100
AcDbArc
 50
0.0
 51
90.0
  0
ARC
  5
396
330
32B
100
AcDbEntity
  8
0
  6
K5LT32768
 62
     5
420
      255
370
    60
100
AcDbCircle
 10
346.9999999999927
 20
36.83752016855578
 30
0.0
 40
5.999999999999986
100
AcDbArc
 50
295.0000000000147
 51
0.0
  0
ARC
  5
397
330
32B
100
AcDbEntity
  8
0
  6
K5LT32768
 62
     5
420
      255
370
    60
100
AcDbCircle
 10
84.99999999999272
 20
38.27350269189628
 30
0.0
 40
10.0
100
AcDbArc
 50
182.9885625924346
 51
240.0000000000001
  0
LINE
  5
398
330
32B
100
AcDbEntity
  8
0
  6
K5LT32768
 62
     5
420
      255
370
    60
100
AcDbLine
 10
288.5599736186487
 20
3.999999999992724
 30
0.0
 11
127.0429399400018
 21
4.0
 31
0.0
  0
LINE
  5
399
330
32B
100
AcDbEntity
  8
0
  6
K5LT32768
 62
     5
420
      255
370
    60
100
AcDbLine
 10
402.7339084527121
 20
-9.973147127202537
 30
0.0
 11
52.68819882411481
 21
-35.67776552654686
 31
0.0
  0
LINE
  5
39A
330
32B
100
AcDbEntity
  8
0
  6
K5LT32768
 62
     5
420
      255
370
    60
100
AcDbLine
 10
339.7793429868252
 20
20.22993747884902
 30
0.0
 11
348.9191309969247
 21
24.49189062188088
 31
0.0
  0
LINE
  5
39B
330
32B
100
AcDbEntity
  8
0
  6
K5LT32768
 62
     5
420
      255
370
    60
100
AcDbLine
 10
367.0015585507062
 20
20.3078301176356
 30
0.0
 11
367.0015585507062
 21
26.64140293342643
 31
0.0
  0
ARC
  5
39C
330
32B
100
AcDbEntity
  8
0
  6
K5LT32768
 62
     5
420
      255
370
    60
100
AcDbCircle
 10
402.0015585507062
 20
0.0
 30
0.0
 40
10.0
100
AcDbArc
 50
171.3884584524187
 51
188.6115415475811
  0
ARC
  5
39D
330
32B
100
AcDbEntity
  8
0
  6
K5LT32768
 62
     5
420
      255
370
    60
100
AcDbCircle
 10
402.0015585507062
 20
0.0
 30
0.0
 40
10.0
100
AcDbArc
 50
270.0
 51
90.0
  0
LINE
  5
39E
330
32B
100
AcDbEntity
  8
0
  6
K5LT32768
 62
     5
420
      255
370
    60
100
AcDbLine
 10
-53.77502783967793
 20
-1.0
 30
0.0
 11
-44.84119674648537
 21
-1.0
 31
0.0
  0
ARC
  5
39F
330
32B
100
AcDbEntity
  8
0
  6
K5LT32768
 62
     5
420
      255
370
    60
100
AcDbCircle
 10
-44.84119674648537
 20
-11.0
 30
0.0
 40
9.999999999999998
100
AcDbArc
 50
46.9509201997485
 51
90.0
  0
LINE
  5
3A0
330
32B
100
AcDbEntity
  8
0
  6
K5LT32768
 62
     5
420
      255
370
    60
100
AcDbLine
 10
-53.77502783967793
 20
5.0
 30
0.0
 11
-44.79118216792267
 21
5.0
 31
0.0
  0
ARC
  5
3A1
330
32B
100
AcDbEntity
  8
0
  6
K5LT32768
 62
     5
420
      255
370
    60
100
AcDbCircle
 10
-65.0
 20
8.5
 30
0.0
 40
6.500000000000007
100
AcDbArc
 50
233.6587969062179
 51
299.926434866613
  0
ARC
  5
3A2
330
32B
100
AcDbEntity
  8
0
  6
K5LT32768
 62
     5
420
      255
370
    60
100
AcDbCircle
 10
-53.77502783967793
 20
-11.0
 30
0.0
 40
16.0
100
AcDbArc
 50
90.0
 51
119.9264348666169
  0
ARC
  5
3A3
330
32B
100
AcDbEntity
  8
0
  6
K5LT32768
 62
     5
420
      255
370
    60
100
AcDbCircle
 10
-67.0
 20
7.0
 30
0.0
 40
9.999999999999993
100
AcDbArc
 50
111.4497653889778
 51
180.0
  0
ARC
  5
3A4
330
32B
100
AcDbEntity
  8
0
  6
K5LT32768
 62
     5
420
      255
370
    60
100
AcDbCircle
 10
-76.50781867491605
 20
31.19920213653677
 30
0.0
 40
15.99999999999999
100
AcDbArc
 50
291.4497653889769
 51
325.598401250882
  0
ARC
  5
3A5
330
32B
100
AcDbEntity
  8
0
  6
K5LT32768
 62
     5
420
      255
370
    60
100
AcDbCircle
 10
-73.0
 20
-2.374281585463905
 30
0.0
 40
6.999999999999996
100
AcDbArc
 50
53.65879690617836
 51
102.6105239569766
  0
ARC
  5
3A6
330
32B
100
AcDbEntity
  8
0
  6
K5LT32768
 62
     5
420
      255
370
    60
100
AcDbCircle
 10
-70.0
 20
7.0
 30
0.0
 40
7.0
100
AcDbArc
 50
180.0
 51
186.7927486506765
  0
ARC
  5
3A7
330
32B
100
AcDbEntity
  8
0
  6
K5LT32768
 62
     5
420
      255
370
    60
100
AcDbCircle
 10
-74.96490242675645
 20
6.408608511388593
 30
0.0
 40
1.999999999999995
100
AcDbArc
 50
186.7927486507237
 51
282.6105239570281
  0
ARC
  5
3A8
330
32B
100
AcDbEntity
  8
0
  6
K5LT32768
 62
     5
420
      255
370
    60
100
AcDbCircle
 10
-12.0
 20
51.0
 30
0.0
 40
7.000000000000003
100
AcDbArc
 50
199.367544462134
 51
255.5102374060997
  0
LINE
  5
3A9
330
32B
100
AcDbEntity
  8
0
  6
K5LT32768
 62
     5
420
      255
370
    60
100
AcDbLine
 10
23.59999999999854
 20
-7.0
 30
0.0
 11
12.24744871391886
 21
-7.0
 31
0.0
  0
LINE
  5
3AA
330
32B
100
AcDbEntity
  8
0
  6
K5LT32768
 62
     5
420
      255
370
    60
100
AcDbLine
 10
23.59999999999854
 20
-7.0
 30
0.0
 11
31.6525512860826
 21
-7.0
 31
0.0
  0
LINE
  5
3AB
330
32B
100
AcDbEntity
  8
0
  6
K5LT32768
 62
     5
420
      255
370
    60
100
AcDbLine
 10
23.59999999999854
 20
7.0
 30
0.0
 11
12.24744871391886
 21
7.0
 31
0.0
  0
LINE
  5
3AC
330
32B
100
AcDbEntity
  8
0
  6
K5LT32768
 62
     5
420
      255
370
    60
100
AcDbLine
 10
23.59999999999854
 20
7.0
 30
0.0
 11
31.6525512860826
 21
7.0
 31
0.0
  0
ARC
  5
3AD
330
32B
100
AcDbEntity
  8
0
  6
K5LT32768
 62
     5
420
      255
370
    60
100
AcDbCircle
 10
0.0
 20
0.0
 30
0.0
 40
13.00000000000001
100
AcDbArc
 50
37.79972243542055
 51
42.63474589997162
  0
LINE
  5
3AE
330
32B
100
AcDbEntity
  8
0
  6
K5LT32768
 62
     5
420
      255
370
    60
100
AcDbLine
 10
19.18170541003201
 20
-21.24572713890666
 30
0.0
 11
37.26954729959107
 21
-17.36549703058699
 31
0.0
  0
LINE
  5
3AF
330
32B
100
AcDbEntity
  8
0
  6
K5LT32768
 62
     5
420
      255
370
    60
100
AcDbLine
 10
21.59684329415177
 20
-25.84138287504902
 30
0.0
 11
38.55784264858812
 21
-22.20288466370403
 31
0.0
  0
LINE
  5
3B0
330
32B
100
AcDbEntity
  8
0
  6
K5LT32768
 62
     5
420
      255
370
    60
100
AcDbLine
 10
4.81489920837339
 20
-14.08249784709187
 30
0.0
 11
8.536717081005918
 21
-20.92407481885311
 31
0.0
  0
LINE
  5
3B1
330
32B
100
AcDbEntity
  8
0
  6
K5LT32768
 62
     5
420
      255
370
    60
100
AcDbLine
 10
9.207059963904612
 20
-11.69316239606997
 30
0.0
 11
12.81180135596514
 21
-18.31952524909866
 31
0.0
  0
ARC
  5
3B2
330
32B
100
AcDbEntity
  8
0
  6
K5LT32768
 62
     5
420
      255
370
    60
100
AcDbCircle
 10
13.59999999999854
 20
-25.0
 30
0.0
 40
5.500000000000017
100
AcDbArc
 50
50.78985771025466
 51
79.86400327751744
  0
ARC
  5
3B3
330
32B
100
AcDbEntity
  8
0
  6
K5LT32768
 62
     5
420
      255
370
    60
100
AcDbCircle
 10
13.59999999999854
 20
-25.0
 30
0.0
 40
5.499999999999988
100
AcDbArc
 50
155.4160883768289
 51
161.645730835258
  0
ARC
  5
3B4
330
32B
100
AcDbEntity
  8
0
  6
K5LT32768
 62
     5
420
      255
370
    60
100
AcDbCircle
 10
43.90000000000146
 20
-18.5
 30
0.0
 40
5.500000000000013
100
AcDbArc
 50
228.9775679026764
 51
311.0224320973236
  0
ARC
  5
3B5
330
32B
100
AcDbEntity
  8
0
  6
K5LT32768
 62
     5
420
      255
370
    60
100
AcDbCircle
 10
0.0
 20
0.0
 30
0.0
 40
12.99999999999999
100
AcDbArc
 50
317.3652541000284
 51
322.2002775645796
  0
ARC
  5
3B6
330
32B
100
AcDbEntity
  8
0
  6
K5LT32768
 62
     5
420
      255
370
    60
100
AcDbCircle
 10
0.0
 20
0.0
 30
0.0
 40
13.0
100
AcDbArc
 50
260.272872637922
 51
279.727127362078
  0
ARC
  5
3B7
330
32B
100
AcDbEntity
  8
0
  6
K5LT32768
 62
     5
420
      255
370
    60
100
AcDbCircle
 10
13.59999999999854
 20
25.0
 30
0.0
 40
5.499999999999988
100
AcDbArc
 50
280.1359967225339
 51
309.2101422897455
  0
ARC
  5
3B8
330
32B
100
AcDbEntity
  8
0
  6
K5LT32768
 62
     5
420
      255
370
    60
100
AcDbCircle
 10
0.0
 20
0.0
 30
0.0
 40
12.99999999999999
100
AcDbArc
 50
99.58454005322824
 51
101.0885876073204
  0
ARC
  5
3B9
330
32B
100
AcDbEntity
  8
0
  6
K5LT32768
 62
     5
420
      255
370
    60
100
AcDbCircle
 10
11.40314034168114
 20
10.49849467056629
 30
0.0
 40
2.499999999999996
100
AcDbArc
 50
151.453809269013
 51
222.6347458999454
  0
ARC
  5
3BA
330
32B
100
AcDbEntity
  8
0
  6
K5LT32768
 62
     5
420
      255
370
    60
100
AcDbCircle
 10
12.24744871391886
 20
9.5
 30
0.0
 40
2.499999999999996
100
AcDbArc
 50
217.7997224354132
 51
270.0
  0
ARC
  5
3BB
330
32B
100
AcDbEntity
  8
0
  6
K5LT32768
 62
     5
420
      255
370
    60
100
AcDbCircle
 10
15.00788173373439
 20
17.12485752358771
 30
0.0
 40
2.500000000000006
100
AcDbArc
 50
100.1359967224918
 51
151.4538092688663
  0
ARC
  5
3BC
330
32B
100
AcDbEntity
  8
0
  6
K5LT32768
 62
     5
420
      255
370
    60
100
AcDbCircle
 10
18.65733176485082
 20
18.80133922365349
 30
0.0
 40
2.500000000000012
100
AcDbArc
 50
77.89232974319182
 51
129.2101422898006
  0
ARC
  5
3BD
330
32B
100
AcDbEntity
  8
0
  6
K5LT32768
 62
     5
420
      255
370
    60
100
AcDbCircle
 10
36.74517365440261
 20
14.92110911533382
 30
0.0
 40
2.499999999999995
100
AcDbArc
 50
26.57451719674527
 51
77.89232974319182
  0
ARC
  5
3BE
330
32B
100
AcDbEntity
  8
0
  6
K5LT32768
 62
     5
420
      255
370
    60
100
AcDbCircle
 10
43.90000000000146
 20
0.0
 30
0.0
 40
13.0
100
AcDbArc
 50
217.7997224354218
 51
244.702024043123
  0
ARC
  5
3BF
330
32B
100
AcDbEntity
  8
0
  6
K5LT32768
 62
     5
420
      255
370
    60
100
AcDbCircle
 10
43.90000000000146
 20
18.5
 30
0.0
 40
5.5
100
AcDbArc
 50
206.5745171967315
 51
214.1118892755628
  0
ARC
  5
3C0
330
32B
100
AcDbEntity
  8
0
  6
K5LT32768
 62
     5
420
      255
370
    60
100
AcDbCircle
 10
43.90000000000146
 20
0.0
 30
0.0
 40
12.99999999999999
100
AcDbArc
 50
115.2979759568735
 51
142.2002775645796
  0
ARC
  5
3C1
330
32B
100
AcDbEntity
  8
0
  6
K5LT32768
 62
     5
420
      255
370
    60
100
AcDbCircle
 10
43.90000000000146
 20
18.5
 30
0.0
 40
5.5
100
AcDbArc
 50
206.5745171967315
 51
214.1118892755536
  0
ARC
  5
3C2
330
32B
100
AcDbEntity
  8
0
  6
K5LT32768
 62
     5
420
      255
370
    60
100
AcDbCircle
 10
31.6525512860826
 20
9.5
 30
0.0
 40
2.5
100
AcDbArc
 50
270.0
 51
322.2002775645867
  0
ARC
  5
3C3
330
32B
100
AcDbEntity
  8
0
  6
K5LT32768
 62
     5
420
      255
370
    60
100
AcDbCircle
 10
37.27644815778331
 20
14.01351351351332
 30
0.0
 40
2.499999999999994
100
AcDbArc
 50
295.2979759568556
 51
34.11188927553306
  0
ARC
  5
3C4
330
32B
100
AcDbEntity
  8
0
  6
K5LT32768
 62
     5
420
      255
370
    60
100
AcDbCircle
 10
43.90000000000146
 20
18.5
 30
0.0
 40
5.499999999999996
100
AcDbArc
 50
101.9636397101874
 51
131.022432097402
  0
ARC
  5
3C5
330
32B
100
AcDbEntity
  8
0
  6
K5LT32768
 62
     5
420
      255
370
    60
100
AcDbCircle
 10
43.90000000000146
 20
0.0
 30
0.0
 40
12.99999999999999
100
AcDbArc
 50
115.297975956877
 51
142.2002775645781
  0
ARC
  5
3C6
330
32B
100
AcDbEntity
  8
0
  6
K5LT32768
 62
     5
420
      255
370
    60
100
AcDbCircle
 10
43.90000000000146
 20
-18.5
 30
0.0
 40
5.500000000000004
100
AcDbArc
 50
145.8881107244464
 51
153.4254828032218
  0
ARC
  5
3C7
330
32B
100
AcDbEntity
  8
0
  6
K5LT32768
 62
     5
420
      255
370
    60
100
AcDbCircle
 10
43.90000000000146
 20
0.0
 30
0.0
 40
13.00000000000001
100
AcDbArc
 50
217.7997224354206
 51
244.7020240431264
  0
ARC
  5
3C8
330
32B
100
AcDbEntity
  8
0
  6
K5LT32768
 62
     5
420
      255
370
    60
100
AcDbCircle
 10
37.27644815778331
 20
-14.01351351351332
 30
0.0
 40
2.500000000000012
100
AcDbArc
 50
325.8881107244664
 51
64.7020240431444
  0
ARC
  5
3C9
330
32B
100
AcDbEntity
  8
0
  6
K5LT32768
 62
     5
420
      255
370
    60
100
AcDbCircle
 10
36.74517365440261
 20
-14.92110911532654
 30
0.0
 40
2.500000000000005
100
AcDbArc
 50
282.1076702567731
 51
333.4254828032547
  0
ARC
  5
3CA
330
32B
100
AcDbEntity
  8
0
  6
K5LT32768
 62
     5
420
      255
370
    60
100
AcDbCircle
 10
31.6525512860826
 20
-9.5
 30
0.0
 40
2.499999999999996
100
AcDbArc
 50
37.79972243541327
 51
90.0
  0
ARC
  5
3CB
330
32B
100
AcDbEntity
  8
0
  6
K5LT32768
 62
     5
420
      255
370
    60
100
AcDbCircle
 10
12.24744871391886
 20
-9.5
 30
0.0
 40
2.5
100
AcDbArc
 50
90.0
 51
142.2002775645867
  0
ARC
  5
3CC
330
32B
100
AcDbEntity
  8
0
  6
K5LT32768
 62
     5
420
      255
370
    60
100
AcDbCircle
 10
11.40314034168114
 20
-10.49849467056629
 30
0.0
 40
2.500000000000003
100
AcDbArc
 50
137.3652541000546
 51
208.546190730987
  0
ARC
  5
3CD
330
32B
100
AcDbEntity
  8
0
  6
K5LT32768
 62
     5
420
      255
370
    60
100
AcDbCircle
 10
15.00788173372712
 20
-17.12485752358771
 30
0.0
 40
2.500000000000001
100
AcDbArc
 50
208.5461907311337
 51
259.8640032775081
  0
ARC
  5
3CE
330
32B
100
AcDbEntity
  8
0
  6
K5LT32768
 62
     5
420
      255
370
    60
100
AcDbCircle
 10
18.65733176485082
 20
-18.80133922365349
 30
0.0
 40
2.499999999999995
100
AcDbArc
 50
230.7898577101993
 51
282.1076702567731
  0
ARC
  5
3CF
330
32B
100
AcDbEntity
  8
0
  6
K5LT32768
 62
     5
420
      255
370
    60
100
AcDbCircle
 10
-2.618818830604141
 20
-15.27716557259555
 30
0.0
 40
2.500000000000002
100
AcDbArc
 50
80.27287263783514
 51
151.453809269013
  0
ARC
  5
3D0
330
32B
100
AcDbEntity
  8
0
  6
K5LT32768
 62
     5
420
      255
370
    60
100
AcDbCircle
 10
2.618818830604141
 20
-15.27716557259555
 30
0.0
 40
2.499999999999996
100
AcDbArc
 50
28.54619073098694
 51
99.72712736216486
  0
ARC
  5
3D1
330
32B
100
AcDbEntity
  8
0
  6
K5LT32768
 62
     5
420
      255
370
    60
100
AcDbCircle
 10
-3.511354019814462
 20
-16.91785525865271
 30
0.0
 40
2.499999999999996
100
AcDbArc
 50
151.453809269013
 51
244.8357942981203
  0
ARC
  5
3D2
330
32B
100
AcDbEntity
  8
0
  6
K5LT32768
 62
     5
420
      255
370
    60
100
AcDbCircle
 10
6.779852778796339
 20
-21.87980899925606
 30
0.0
 40
1.999999999999996
100
AcDbArc
 50
335.4160883768116
 51
28.54619073096755
  0
ARC
  5
3D3
330
32B
100
AcDbEntity
  8
0
  6
K5LT32768
 62
     5
420
      255
370
    60
100
AcDbCircle
 10
7.430670302252111
 20
-22.95320468035061
 30
0.0
 40
1.000000000000026
100
AcDbArc
 50
251.1714458552731
 51
341.6457308353077
  0
ARC
  5
3D4
330
32B
100
AcDbEntity
  8
0
  6
K5LT32768
 62
     5
420
      255
370
    60
100
AcDbCircle
 10
21.80659275221842
 20
-26.81913804114447
 30
0.0
 40
0.9999999999999841
100
AcDbArc
 50
102.1076702567094
 51
258.7250802409349
  0
ARC
  5
3D5
330
32B
100
AcDbEntity
  8
0
  6
K5LT32768
 62
     5
420
      255
370
    60
100
AcDbCircle
 10
0.0
 20
0.0
 30
0.0
 40
13.00000000000001
100
AcDbArc
 50
197.4576031237213
 51
221.3482994810271
  0
LINE
  5
3D6
330
32B
100
AcDbEntity
  8
0
  6
K5LT32768
 62
     5
420
      255
370
    60
100
AcDbLine
 10
6.746641959820408
 20
17.63349555197055
 30
0.0
 11
8.536717081013194
 21
20.92407481886039
 31
0.0
  0
LINE
  5
3D7
330
32B
100
AcDbEntity
  8
0
  6
K5LT32768
 62
     5
420
      255
370
    60
100
AcDbLine
 10
9.207059963911888
 20
11.69316239606997
 30
0.0
 11
12.81180135595787
 21
18.31952524909866
 31
0.0
  0
LINE
  5
3D8
330
32B
100
AcDbEntity
  8
0
  6
K5LT32768
 62
     5
420
      255
370
    60
100
AcDbLine
 10
-9.376023469063512
 20
-12.00375707466446
 30
0.0
 11
-9.920329694257816
 21
-13.00431998864224
 31
0.0
  0
LINE
  5
3D9
330
32B
100
AcDbEntity
  8
0
  6
K5LT32768
 62
     5
420
      255
370
    60
100
AcDbLine
 10
-4.814899208366114
 20
-14.08249784709915
 30
0.0
 11
-5.707434397576435
 21
-15.72318753314903
 31
0.0
  0
LINE
  5
3DA
330
32B
100
AcDbEntity
  8
0
  6
K5LT32768
 62
     5
420
      255
370
    60
100
AcDbLine
 10
-4.64176187839621
 20
13.76423069641896
 30
0.0
 11
-14.63135630505712
 21
32.12745574543078
 31
0.0
  0
LINE
  5
3DB
330
32B
100
AcDbEntity
  8
0
  6
K5LT32768
 62
     5
420
      255
370
    60
100
AcDbLine
 10
-9.376023469063512
 20
12.00375707465719
 30
0.0
 11
-18.47164699902351
 21
28.72365326945146
 31
0.0
  0
ARC
  5
3DC
330
32B
100
AcDbEntity
  8
0
  6
K5LT32768
 62
     5
420
      255
370
    60
100
AcDbCircle
 10
-30.07427151514275
 20
43.7741109377821
 30
0.0
 40
2.999999999999993
100
AcDbArc
 50
28.54619073105606
 51
108.7167385135047
  0
ARC
  5
3DD
330
32B
100
AcDbEntity
  8
0
  6
K5LT32768
 62
     5
420
      255
370
    60
100
AcDbCircle
 10
-12.01131992239243
 20
10.57015580405277
 30
0.0
 40
3.000000000000006
100
AcDbArc
 50
340.1262790846204
 51
28.54619073105599
  0
ARC
  5
3DE
330
32B
100
AcDbEntity
  8
0
  6
K5LT32768
 62
     5
420
      255
370
    60
100
AcDbCircle
 10
-12.01131992239243
 20
-10.57015580405277
 30
0.0
 40
3.0
100
AcDbArc
 50
331.453809268944
 51
41.34829948099049
  0
ARC
  5
3DF
330
32B
100
AcDbEntity
  8
0
  6
K5LT32768
 62
     5
420
      255
370
    60
100
AcDbCircle
 10
-12.55562614759401
 20
-11.57071871803782
 30
0.0
 40
3.000000000000008
100
AcDbArc
 50
239.428763450082
 51
331.4538092690659
  0
ARC
  5
3E0
330
32B
100
AcDbEntity
  8
0
  6
K5LT32768
 62
     5
420
      255
370
    60
100
AcDbCircle
 10
-14.50207014881744
 20
41.31807638067403
 30
0.0
 40
3.000000000000003
100
AcDbArc
 50
22.38013505200517
 51
75.51023740612015
  0
ARC
  5
3E1
330
32B
100
AcDbEntity
  8
0
  6
K5LT32768
 62
     5
420
      255
370
    60
100
AcDbCircle
 10
-2.884897576186631
 20
14.7199648768219
 30
0.0
 40
1.999999999999998
100
AcDbArc
 50
208.5461907310668
 51
281.0885876073204
  0
ARC
  5
3E2
330
32B
100
AcDbEntity
  8
0
  6
K5LT32768
 62
     5
420
      255
370
    60
100
AcDbCircle
 10
-2.497540384829335
 20
14.79061499823729
 30
0.0
 40
2.000000000000003
100
AcDbArc
 50
279.5845400532514
 51
22.38013505200475
  0
ARC
  5
3E3
330
32B
100
AcDbEntity
  8
0
  6
K5LT32768
 62
     5
420
      255
370
    60
100
AcDbCircle
 10
-20.54373870324343
 20
47.18106988980435
 30
0.0
 40
2.0
100
AcDbArc
 50
99.32275777334767
 51
208.5461907309675
  0
ARC
  5
3E4
330
32B
100
AcDbEntity
  8
0
  6
K5LT32768
 62
     5
420
      255
370
    60
100
AcDbCircle
 10
-19.54728529020213
 20
48.34698572407069
 30
0.0
 40
0.9999999999999957
100
AcDbArc
 50
19.36754446223204
 51
98.25666266189378
  0
ARC
  5
3E5
330
32B
100
AcDbEntity
  8
0
  6
K5LT32768
 62
     5
420
      255
370
    60
100
AcDbCircle
 10
-48.03549710652442
 20
34.08416014620889
 30
0.0
 40
3.000000000000007
100
AcDbArc
 50
127.976340023273
 51
240.0000000000067
  0
ARC
  5
3E6
330
32B
100
AcDbEntity
  8
0
  6
K5LT32768
 62
     5
420
      255
370
    60
100
AcDbCircle
 10
-10.13043163156544
 20
9.890259313819115
 30
0.0
 40
0.9999999999999886
100
AcDbArc
 50
239.999999999937
 51
340.1262790847451
  0
LINE
  5
3E7
330
32B
100
AcDbEntity
  8
0
  6
K5LT32768
 62
     5
420
      255
370
    60
100
AcDbLine
 10
-12.56217782649037
 20
4.366025403774984
 30
0.0
 11
-30.74576240750321
 21
14.86432285646879
 31
0.0
  0
LINE
  5
3E8
330
32B
100
AcDbEntity
  8
0
  6
K5LT32768
 62
     5
420
      255
370
    60
100
AcDbLine
 10
-10.63043163156544
 20
9.024233910036855
 30
0.0
 11
-28.24576240750321
 21
19.19444987538736
 31
0.0
  0
ARC
  5
3E9
330
32B
100
AcDbEntity
  8
0
  6
K5LT32768
 62
     5
420
      255
370
    60
100
AcDbCircle
 10
0.0
 20
0.0
 30
0.0
 40
37.49999999999999
100
AcDbArc
 50
159.1732493837837
 51
172.1304380023552
  0
ARC
  5
3EA
330
32B
100
AcDbEntity
  8
0
  6
K5LT32768
 62
     5
420
      255
370
    60
100
AcDbCircle
 10
0.0
 20
0.0
 30
0.0
 40
37.49999999999999
100
AcDbArc
 50
127.7194401148319
 51
140.8267506162079
  0
ARC
  5
3EB
330
32B
100
AcDbEntity
  8
0
  6
K5LT32768
 62
     5
420
      255
370
    60
100
AcDbCircle
 10
0.0
 20
0.0
 30
0.0
 40
37.49999999999999
100
AcDbArc
 50
107.0105184633141
 51
111.2637532512528
  0
ARC
  5
3EC
330
32B
100
AcDbEntity
  8
0
  6
K5LT32768
 62
     5
420
      255
370
    60
100
AcDbCircle
 10
0.0
 20
0.0
 30
0.0
 40
42.5
100
AcDbArc
 50
156.9428418453968
 51
169.8733763940872
  0
ARC
  5
3ED
330
32B
100
AcDbEntity
  8
0
  6
K5LT32768
 62
     5
420
      255
370
    60
100
AcDbCircle
 10
0.0
 20
0.0
 30
0.0
 40
42.5
100
AcDbArc
 50
125.4890325764541
 51
143.0571581545913
  0
ARC
  5
3EE
330
32B
100
AcDbEntity
  8
0
  6
K5LT32768
 62
     5
420
      255
370
    60
100
AcDbCircle
 10
0.0
 20
0.0
 30
0.0
 40
42.50000000000001
100
AcDbArc
 50
106.6778930192525
 51
112.7423149667704
  0
LINE
  5
3EF
330
32B
100
AcDbEntity
  8
0
  6
K5LT32768
 62
     5
420
      255
370
    60
100
AcDbLine
 10
-40.36521443122183
 20
20.41811607182171
 30
0.0
 11
-54.87980547405459
 21
28.79811911757861
 31
0.0
  0
LINE
  5
3F0
330
32B
100
AcDbEntity
  8
0
  6
K5LT32768
 62
     5
420
      255
370
    60
100
AcDbLine
 10
-37.86521443121455
 20
24.74824309074029
 30
0.0
 11
-49.53549710652442
 21
31.48608393485483
 31
0.0
  0
LINE
  5
3F1
330
32B
100
AcDbEntity
  8
0
  6
K5LT32768
 62
     5
420
      255
370
    60
100
AcDbLine
 10
-23.77959700584324
 20
38.48091431138891
 30
0.0
 11
-27.43897506181384
 21
45.20771220839379
 31
0.0
  0
LINE
  5
3F2
330
32B
100
AcDbEntity
  8
0
  6
K5LT32768
 62
     5
420
      255
370
    60
100
AcDbLine
 10
-18.95999755652883
 20
40.08451686944318
 30
0.0
 11
-22.30060300546029
 21
46.22533570940141
 31
0.0
  0
ARC
  5
3F3
330
32B
100
AcDbEntity
  8
0
  6
K5LT32768
 62
     5
420
      255
370
    60
100
AcDbCircle
 10
-34.1750907288515
 20
4.723682215706503
 30
0.0
 40
2.999999999999999
100
AcDbArc
 50
172.130438002308
 51
192.9253998073785
  0
ARC
  5
3F4
330
32B
100
AcDbEntity
  8
0
  6
K5LT32768
 62
     5
420
      255
370
    60
100
AcDbCircle
 10
-36.36521443121455
 20
27.34631930209434
 30
0.0
 40
2.999999999999992
100
AcDbArc
 50
240.0000000000067
 51
323.0571581546599
  0
ARC
  5
3F5
330
32B
100
AcDbEntity
  8
0
  6
K5LT32768
 62
     5
420
      255
370
    60
100
AcDbCircle
 10
-26.74576240750321
 20
21.79252608674142
 30
0.0
 40
2.999999999999995
100
AcDbArc
 50
140.8267506161513
 51
239.9999999999378
  0
ARC
  5
3F6
330
32B
100
AcDbEntity
  8
0
  6
K5LT32768
 62
     5
420
      255
370
    60
100
AcDbCircle
 10
-32.24576240750321
 20
12.26624664511473
 30
0.0
 40
3.000000000000009
100
AcDbArc
 50
60.00000000000731
 51
159.1732493837843
  0
ARC
  5
3F7
330
32B
100
AcDbEntity
  8
0
  6
K5LT32768
 62
     5
420
      255
370
    60
100
AcDbCircle
 10
-26.41489345917216
 20
37.04731304076995
 30
0.0
 40
3.000000000000008
100
AcDbArc
 50
305.4890325764953
 51
28.54619073105599
  0
ARC
  5
3F8
330
32B
100
AcDbEntity
  8
0
  6
K5LT32768
 62
     5
420
      255
370
    60
100
AcDbCircle
 10
-21.10694345235243
 20
27.29005199883977
 30
0.0
 40
3.0
100
AcDbArc
 50
28.54619073100036
 51
127.7194401148092
  0
ARC
  5
3F9
330
32B
100
AcDbEntity
  8
0
  6
K5LT32768
 62
     5
420
      255
370
    60
100
AcDbCircle
 10
-12.87449200284027
 20
33.08318992583372
 30
0.0
 40
1.999999999999993
100
AcDbArc
 50
111.2637532513122
 51
208.5461907309675
  0
ARC
  5
3FA
330
32B
100
AcDbEntity
  8
0
  6
K5LT32768
 62
     5
420
      255
370
    60
100
AcDbCircle
 10
-10.38542772857181
 20
33.94691283305292
 30
0.0
 40
1.999999999999999
100
AcDbArc
 50
22.38013505200461
 51
107.010518463388
  0
ARC
  5
3FB
330
32B
100
AcDbEntity
  8
0
  6
K5LT32768
 62
     5
420
      255
370
    60
100
AcDbCircle
 10
-17.20313325431198
 20
41.04025104984612
 30
0.0
 40
2.000000000000005
100
AcDbArc
 50
208.5461907309675
 51
292.7423149668626
  0
ARC
  5
3FC
330
32B
100
AcDbEntity
  8
0
  6
K5LT32768
 62
     5
420
      255
370
    60
100
AcDbCircle
 10
-12.48410556892486
 20
41.67009848973248
 30
0.0
 40
0.9999999999999977
100
AcDbArc
 50
286.6778930191589
 51
22.38013505200459
  0
ARC
  5
3FD
330
32B
100
AcDbEntity
  8
0
  6
K5LT32768
 62
     5
420
      255
370
    60
100
AcDbCircle
 10
-13.06217782649037
 20
3.5
 30
0.0
 40
1.0
100
AcDbArc
 50
270.0
 51
59.99999999993795
  0
ARC
  5
3FE
330
32B
100
AcDbEntity
  8
0
  6
K5LT32768
 62
     5
420
      255
370
    60
100
AcDbCircle
 10
-27.60349641799985
 20
-3.5
 30
0.0
 40
1.0
100
AcDbArc
 50
90.0
 51
230.7448964150665
  0
ARC
  5
3FF
330
32B
100
AcDbEntity
  8
0
  6
K5LT32768
 62
     5
420
      255
370
    60
100
AcDbCircle
 10
-14.30908802125487
 20
-4.5
 30
0.0
 40
2.000000000000002
100
AcDbArc
 50
17.45760312370228
 51
90.0
  0
ARC
  5
400
330
32B
100
AcDbEntity
  8
0
  6
K5LT32768
 62
     5
420
      255
370
    60
100
AcDbCircle
 10
-35.14975285819673
 20
4.5
 30
0.0
 40
2.000000000000001
100
AcDbArc
 50
192.925399807425
 51
270.0
  0
ARC
  5
401
330
32B
100
AcDbEntity
  8
0
  6
K5LT32768
 62
     5
420
      255
370
    60
100
AcDbCircle
 10
13.59999999999854
 20
25.0
 30
0.0
 40
5.499999999999998
100
AcDbArc
 50
156.4218215217886
 51
204.5839116231209
  0
ARC
  5
402
330
32B
100
AcDbEntity
  8
0
  6
K5LT32768
 62
     5
420
      255
370
    60
100
AcDbCircle
 10
43.90000000000146
 20
0.0
 30
0.0
 40
12.99999999999999
100
AcDbArc
 50
295.297975956819
 51
321.3178125465158
  0
ARC
  5
403
330
32B
100
AcDbEntity
  8
0
  6
K5LT32768
 62
     5
420
      255
370
    60
100
AcDbCircle
 10
43.90000000000146
 20
-18.5
 30
0.0
 40
5.500000000000009
100
AcDbArc
 50
145.8881107244372
 51
153.4254828032072
  0
LINE
  5
404
330
32B
100
AcDbEntity
  8
0
  6
K5LT32768
 62
     5
420
      255
370
    60
100
AcDbLine
 10
2.877875385551306
 20
30.0
 30
0.0
 11
6.726136457560642
 21
30.0
 31
0.0
  0
ARC
  5
405
330
32B
100
AcDbEntity
  8
0
  6
K5LT32768
 62
     5
420
      255
370
    60
100
AcDbCircle
 10
30.0
 20
51.0
 30
0.0
 40
6.999999999999994
100
AcDbArc
 50
281.3688535439663
 51
340.4932835072486
  0
ARC
  5
406
330
32B
100
AcDbEntity
  8
0
  6
K5LT32768
 62
     5
420
      255
370
    60
100
AcDbCircle
 10
2.877875385551306
 20
28.0
 30
0.0
 40
2.0
100
AcDbArc
 50
90.0
 51
202.3801350520046
  0
ARC
  5
407
330
32B
100
AcDbEntity
  8
0
  6
K5LT32768
 62
     5
420
      255
370
    60
100
AcDbCircle
 10
6.726136457567918
 20
28.0
 30
0.0
 40
1.999999999999996
100
AcDbArc
 50
336.4218215218813
 51
90.0
  0
ARC
  5
408
330
32B
100
AcDbEntity
  8
0
  6
K5LT32768
 62
     5
420
      255
370
    60
100
AcDbCircle
 10
6.779852778796339
 20
21.87980899926333
 30
0.0
 40
2.000000000000005
100
AcDbArc
 50
331.4538092690324
 51
24.58391162318838
  0
ARC
  5
409
330
32B
100
AcDbEntity
  8
0
  6
K5LT32768
 62
     5
420
      255
370
    60
100
AcDbCircle
 10
5.868209808715619
 20
18.11136264217203
 30
0.0
 40
0.9999999999999996
100
AcDbArc
 50
202.3801350520046
 51
331.4538092691325
  0
LINE
  5
40A
330
32B
100
AcDbEntity
  8
0
  6
K5LT32768
 62
     5
420
      255
370
    60
100
AcDbLine
 10
29.13042523345939
 20
25.69192068736447
 30
0.0
 11
33.16569320057897
 21
33.10969268575718
 31
0.0
  0
LINE
  5
40B
330
32B
100
AcDbEntity
  8
0
  6
K5LT32768
 62
     5
420
      255
370
    60
100
AcDbLine
 10
34.15229794790503
 20
24.46014398434636
 30
0.0
 11
37.55785395611747
 21
30.72035723474255
 31
0.0
  0
LINE
  5
40C
330
32B
100
AcDbEntity
  8
0
  6
K5LT32768
 62
     5
420
      255
370
    60
100
AcDbLine
 10
41.77959700582869
 20
38.48091431138891
 30
0.0
 11
47.09541780270956
 21
48.2526437174165
 31
0.0
  0
LINE
  5
40D
330
32B
100
AcDbEntity
  8
0
  6
K5LT32768
 62
     5
420
      255
370
    60
100
AcDbLine
 10
36.95999755651428
 20
40.08451686944318
 30
0.0
 11
41.52116552471853
 21
48.46901681099553
 31
0.0
  0
ARC
  5
40E
330
32B
100
AcDbEntity
  8
0
  6
K5LT32768
 62
     5
420
      255
370
    60
100
AcDbCircle
 10
17.99999999998545
 20
0.0
 30
0.0
 40
37.5
100
AcDbArc
 50
46.702735118623
 51
55.95123868894876
  0
ARC
  5
40F
330
32B
100
AcDbEntity
  8
0
  6
K5LT32768
 62
     5
420
      255
370
    60
100
AcDbCircle
 10
17.99999999998545
 20
0.0
 30
0.0
 40
37.49999999999999
100
AcDbArc
 50
66.9563798489908
 51
72.98948153667124
  0
ARC
  5
410
330
32B
100
AcDbEntity
  8
0
  6
K5LT32768
 62
     5
420
      255
370
    60
100
AcDbCircle
 10
17.99999999998545
 20
0.0
 30
0.0
 40
42.49999999999999
100
AcDbArc
 50
54.83472594592781
 51
55.64993350469878
  0
ARC
  5
411
330
32B
100
AcDbEntity
  8
0
  6
K5LT32768
 62
     5
420
      255
370
    60
100
AcDbCircle
 10
17.99999999998545
 20
0.0
 30
0.0
 40
42.49999999999999
100
AcDbArc
 50
67.25768503322956
 51
73.32210698073831
  0
LINE
  5
412
330
32B
100
AcDbEntity
  8
0
  6
K5LT32768
 62
     5
420
      255
370
    60
100
AcDbLine
 10
54.99999999999272
 20
43.00802067712357
 30
0.0
 11
54.99999999999272
 21
46.68489400115504
 31
0.0
  0
LINE
  5
413
330
32B
100
AcDbEntity
  8
0
  6
K5LT32768
 62
     5
420
      255
370
    60
100
AcDbLine
 10
41.35215831205278
 20
37.69518141843582
 30
0.0
 11
41.77959700581414
 21
38.48091431138891
 31
0.0
  0
ARC
  5
414
330
32B
100
AcDbEntity
  8
0
  6
K5LT32768
 62
     5
420
      255
370
    60
100
AcDbCircle
 10
23.59999999999854
 20
0.0
 30
0.0
 40
50.00000000000001
100
AcDbArc
 50
36.39346843410776
 51
46.24318416079463
  0
ARC
  5
415
330
32B
100
AcDbEntity
  8
0
  6
K5LT32768
 62
     5
420
      255
370
    60
100
AcDbCircle
 10
42.34531817575044
 20
25.83709509447363
 30
0.0
 40
1.999999999999988
100
AcDbArc
 50
281.963639710203
 51
46.70273511862369
  0
ARC
  5
416
330
32B
100
AcDbEntity
  8
0
  6
K5LT32768
 62
     5
420
      255
370
    60
100
AcDbCircle
 10
43.10902261426236
 20
36.7394472380256
 30
0.0
 40
1.999999999999999
100
AcDbArc
 50
151.4538092688498
 51
235.6499335047431
  0
ARC
  5
417
330
32B
100
AcDbEntity
  8
0
  6
K5LT32768
 62
     5
420
      255
370
    60
100
AcDbCircle
 10
48.85228210492642
 20
47.29690953701356
 30
0.0
 40
2.000000000000002
100
AcDbArc
 50
82.9119578410806
 51
151.4538092690325
  0
ARC
  5
418
330
32B
100
AcDbEntity
  8
0
  6
K5LT32768
 62
     5
420
      255
370
    60
100
AcDbCircle
 10
52.99999999999272
 20
46.68489400115504
 30
0.0
 40
2.000000000000002
100
AcDbArc
 50
0.0
 51
80.30064629354345
  0
ARC
  5
419
330
32B
100
AcDbEntity
  8
0
  6
K5LT32768
 62
     5
420
      255
370
    60
100
AcDbCircle
 10
31.77411984969513
 20
42.17659369863395
 30
0.0
 40
2.000000000000013
100
AcDbArc
 50
101.3688535439797
 51
157.6198649480746
  0
ARC
  5
41A
330
32B
100
AcDbEntity
  8
0
  6
K5LT32768
 62
     5
420
      255
370
    60
100
AcDbCircle
 10
38.48342118722212
 20
47.99474377794104
 30
0.0
 40
2.000000000000012
100
AcDbArc
 50
89.38753308044667
 51
160.4932835073166
  0
ARC
  5
41B
330
32B
100
AcDbEntity
  8
0
  6
K5LT32768
 62
     5
420
      255
370
    60
100
AcDbCircle
 10
35.20313325429743
 20
41.04025104984612
 30
0.0
 40
1.999999999999993
100
AcDbArc
 50
247.2576850331375
 51
331.4538092690324
  0
ARC
  5
41C
330
32B
100
AcDbEntity
  8
0
  6
K5LT32768
 62
     5
420
      255
370
    60
100
AcDbCircle
 10
30.48410556891758
 20
41.67009848973248
 30
0.0
 40
0.9999999999999978
100
AcDbArc
 50
157.6198649479954
 51
253.3221069808411
  0
ARC
  5
41D
330
32B
100
AcDbEntity
  8
0
  6
K5LT32768
 62
     5
420
      255
370
    60
100
AcDbCircle
 10
40.64273337360646
 20
48.946883901197
 30
0.0
 40
1.0
100
AcDbArc
 50
331.4538092691325
 51
88.06344465425701
  0
ARC
  5
41E
330
32B
100
AcDbEntity
  8
0
  6
K5LT32768
 62
     5
420
      255
370
    60
100
AcDbCircle
 10
28.38542772856454
 20
33.94691283304564
 30
0.0
 40
1.999999999999999
100
AcDbArc
 50
72.98948153667293
 51
157.6198649479954
  0
ARC
  5
41F
330
32B
100
AcDbEntity
  8
0
  6
K5LT32768
 62
     5
420
      255
370
    60
100
AcDbCircle
 10
27.37356093124254
 20
26.64765486776741
 30
0.0
 40
1.999999999999996
100
AcDbArc
 50
257.8923297432908
 51
331.4538092690324
  0
ARC
  5
420
330
32B
100
AcDbEntity
  8
0
  6
K5LT32768
 62
     5
420
      255
370
    60
100
AcDbCircle
 10
32.28726104947418
 20
33.58755977595865
 30
0.0
 40
1.0
100
AcDbArc
 50
331.4538092691325
 51
66.95637984893226
  0
ARC
  5
421
330
32B
100
AcDbEntity
  8
0
  6
K5LT32768
 62
     5
420
      255
370
    60
100
AcDbCircle
 10
24.16103110529366
 20
26.31406050665828
 30
0.0
 40
0.9999999999999978
100
AcDbArc
 50
157.6198649479954
 51
257.892329743291
  0
ARC
  5
422
330
32B
100
AcDbEntity
  8
0
  6
K5LT32768
 62
     5
420
      255
370
    60
100
AcDbCircle
 10
35.03073009902437
 20
23.98227689414489
 30
0.0
 40
0.9999999999999991
100
AcDbArc
 50
151.4538092691325
 51
257.892329743291
  0
ARC
  5
423
330
32B
100
AcDbEntity
  8
0
  6
K5LT32768
 62
     5
420
      255
370
    60
100
AcDbCircle
 10
38.43628610722953
 20
30.24249014454108
 30
0.0
 40
1.000000000000009
100
AcDbArc
 50
55.9512386890325
 51
151.4538092691325
  0
ARC
  5
424
330
32B
100
AcDbEntity
  8
0
  6
K5LT32768
 62
     5
420
      255
370
    60
100
AcDbCircle
 10
38.9773415647287
 20
24.1583949959022
 30
0.0
 40
1.999999999999996
100
AcDbArc
 50
257.8923297432908
 51
311.0224320972661
  0
ARC
  5
425
330
32B
100
AcDbEntity
  8
0
  6
K5LT32768
 62
     5
420
      255
370
    60
100
AcDbCircle
 10
17.99999999998545
 20
0.0
 30
0.0
 40
42.49999999999999
100
AcDbArc
 50
35.62535327399164
 51
42.89167047517102
  0
LINE
  5
426
330
32B
100
AcDbEntity
  8
0
  6
K5LT32768
 62
     5
420
      255
370
    60
100
AcDbLine
 10
44.78428666533728
 20
34.74577193392179
 30
0.0
 11
54.15509223733534
 21
41.37530455874366
 31
0.0
  0
LINE
  5
427
330
32B
100
AcDbEntity
  8
0
  6
K5LT32768
 62
     5
420
      255
370
    60
100
AcDbLine
 10
49.44747020490468
 20
31.92005542374682
 30
0.0
 11
55.64165892096207
 21
36.30223749571451
 31
0.0
  0
ARC
  5
428
330
32B
100
AcDbEntity
  8
0
  6
K5LT32768
 62
     5
420
      255
370
    60
100
AcDbCircle
 10
50.60256244224001
 20
30.28733930537419
 30
0.0
 40
1.99999999999999
100
AcDbArc
 50
125.2781341379509
 51
222.8916704752135
  0
ARC
  5
429
330
32B
100
AcDbEntity
  8
0
  6
K5LT32768
 62
     5
420
      255
370
    60
100
AcDbCircle
 10
56.79675115831196
 20
34.66952137732733
 30
0.0
 40
1.999999999999996
100
AcDbArc
 50
46.2431841607555
 51
125.2781341380005
  0
ARC
  5
42A
330
32B
100
AcDbEntity
  8
0
  6
K5LT32768
 62
     5
420
      255
370
    60
100
AcDbCircle
 10
52.99999999999272
 20
43.00802067712357
 30
0.0
 40
1.99999999999999
100
AcDbArc
 50
305.2781341379509
 51
0.0
  0
ARC
  5
42B
330
32B
100
AcDbEntity
  8
0
  6
K5LT32768
 62
     5
420
      255
370
    60
100
AcDbCircle
 10
43.62919442799466
 20
36.37848805230169
 30
0.0
 40
2.00000000000001
100
AcDbArc
 50
234.8347259459625
 51
305.2781341379509
  0
LINE
  5
42C
330
32B
100
AcDbEntity
  8
0
  6
K5LT32768
 62
     5
420
      255
370
    60
100
AcDbLine
 10
64.20000000000437
 20
-7.0
 30
0.0
 11
56.38999599679664
 21
-7.0
 31
0.0
  0
LINE
  5
42D
330
32B
100
AcDbEntity
  8
0
  6
K5LT32768
 62
     5
420
      255
370
    60
100
AcDbLine
 10
64.20000000000437
 20
7.0
 30
0.0
 11
75.55255128608405
 21
7.0
 31
0.0
  0
LINE
  5
42E
330
32B
100
AcDbEntity
  8
0
  6
K5LT32768
 62
     5
420
      255
370
    60
100
AcDbLine
 10
64.20000000000437
 20
7.0
 30
0.0
 11
56.38999599679664
 21
7.0
 31
0.0
  0
LINE
  5
42F
330
32B
100
AcDbEntity
  8
0
  6
K5LT32768
 62
     5
420
      255
370
    60
100
AcDbLine
 10
93.50223956257832
 20
-26.58386714954395
 30
0.0
 11
86.07351482701779
 21
-24.99024633167573
 31
0.0
  0
LINE
  5
430
330
32B
100
AcDbEntity
  8
0
  6
K5LT32768
 62
     5
420
      255
370
    60
100
AcDbLine
 10
69.1992969204075
 20
-26.48411922471132
 30
0.0
 11
49.24215735141479
 21
-22.20288466369675
 31
0.0
  0
ARC
  5
431
330
32B
100
AcDbEntity
  8
0
  6
K5LT32768
 62
     5
420
      255
370
    60
100
AcDbCircle
 10
56.38999599679664
 20
-10.0
 30
0.0
 40
3.0
100
AcDbArc
 50
90.0
 51
141.3178125464689
  0
ARC
  5
432
330
32B
100
AcDbEntity
  8
0
  6
K5LT32768
 62
     5
420
      255
370
    60
100
AcDbCircle
 10
56.38999599679664
 20
10.0
 30
0.0
 40
3.000000000000004
100
AcDbArc
 50
218.6821874535311
 51
270.0
  0
ARC
  5
433
330
32B
100
AcDbEntity
  8
0
  6
K5LT32768
 62
     5
420
      255
370
    60
100
AcDbCircle
 10
68.98954746233358
 20
-27.46187439080677
 30
0.0
 40
0.999999999999976
100
AcDbArc
 50
274.1998157619747
 51
77.89232974329066
  0
LINE
  5
434
330
32B
100
AcDbEntity
  8
0
  6
K5LT32768
 62
     5
420
      255
370
    60
100
AcDbLine
 10
66.45029883585812
 20
-20.78064554149023
 30
0.0
 11
50.53045270041184
 21
-17.36549703058699
 31
0.0
  0
ARC
  5
435
330
32B
100
AcDbEntity
  8
0
  6
K5LT32768
 62
     5
420
      255
370
    60
100
AcDbCircle
 10
43.8999999999869
 20
-18.5
 30
0.0
 40
5.500000000000003
100
AcDbArc
 50
26.57451719677817
 51
34.11188927555357
  0
ARC
  5
436
330
32B
100
AcDbEntity
  8
0
  6
K5LT32768
 62
     5
420
      255
370
    60
100
AcDbCircle
 10
50.52355184220505
 20
-14.01351351351332
 30
0.0
 40
2.499999999999993
100
AcDbArc
 50
115.2979759568556
 51
214.1118892755336
  0
ARC
  5
437
330
32B
100
AcDbEntity
  8
0
  6
K5LT32768
 62
     5
420
      255
370
    60
100
AcDbCircle
 10
51.05482634558575
 20
-14.92110911532654
 30
0.0
 40
2.499999999999996
100
AcDbArc
 50
206.5745171967452
 51
257.8923297432269
  0
ARC
  5
438
330
32B
100
AcDbEntity
  8
0
  6
K5LT32768
 62
     5
420
      255
370
    60
100
AcDbCircle
 10
43.8999999999869
 20
-18.5
 30
0.0
 40
5.499999999999992
100
AcDbArc
 50
26.57451719679278
 51
34.11188927556285
  0
ARC
  5
439
330
32B
100
AcDbEntity
  8
0
  6
K5LT32768
 62
     5
420
      255
370
    60
100
AcDbCircle
 10
43.90000000000146
 20
-18.5
 30
0.0
 40
5.500000000000007
100
AcDbArc
 50
26.5745171968609
 51
30.26330518989611
  0
ARC
  5
43A
330
32B
100
AcDbEntity
  8
0
  6
K5LT32768
 62
     5
420
      255
370
    60
100
AcDbCircle
 10
38.97734156473598
 20
-24.15839499590948
 30
0.0
 40
1.999999999999982
100
AcDbArc
 50
48.97756790273331
 51
102.1076702567091
  0
ARC
  5
43B
330
32B
100
AcDbEntity
  8
0
  6
K5LT32768
 62
     5
420
      255
370
    60
100
AcDbCircle
 10
48.82265843526693
 20
-24.15839499590948
 30
0.0
 40
2.000000000000024
100
AcDbArc
 50
77.89232974329093
 51
131.0224320972667
  0
ARC
  5
43C
330
32B
100
AcDbEntity
  8
0
  6
K5LT32768
 62
     5
420
      255
370
    60
100
AcDbCircle
 10
43.90000000000146
 20
0.0
 30
0.0
 40
13.00000000000001
100
AcDbArc
 50
38.68218745348428
 51
64.70202404318103
  0
ARC
  5
43D
330
32B
100
AcDbEntity
  8
0
  6
K5LT32768
 62
     5
420
      255
370
    60
100
AcDbCircle
 10
87.80000000000291
 20
0.0
 30
0.0
 40
13.0
100
AcDbArc
 50
137.3652541000284
 51
142.2002775645796
  0
ARC
  5
43E
330
32B
100
AcDbEntity
  8
0
  6
K5LT32768
 62
     5
420
      255
370
    60
100
AcDbCircle
 10
76.39685965832177
 20
10.49849467056629
 30
0.0
 40
2.500000000000003
100
AcDbArc
 50
317.3652541000546
 51
28.54619073098694
  0
ARC
  5
43F
330
32B
100
AcDbEntity
  8
0
  6
K5LT32768
 62
     5
420
      255
370
    60
100
AcDbCircle
 10
75.55255128608405
 20
9.5
 30
0.0
 40
2.5
100
AcDbArc
 50
270.0
 51
322.2002775645867
  0
LINE
  5
440
330
32B
100
AcDbEntity
  8
0
  6
K5LT32768
 62
     5
420
      255
370
    60
100
AcDbLine
 10
78.59294003609102
 20
11.69316239606997
 30
0.0
 11
74.98819864404504
 21
18.31952524909866
 31
0.0
  0
ARC
  5
441
330
32B
100
AcDbEntity
  8
0
  6
K5LT32768
 62
     5
420
      255
370
    60
100
AcDbCircle
 10
74.20000000000437
 20
25.0
 30
0.0
 40
5.500000000000009
100
AcDbArc
 50
230.7898577102795
 51
259.8640032774662
  0
ARC
  5
442
330
32B
100
AcDbEntity
  8
0
  6
K5LT32768
 62
     5
420
      255
370
    60
100
AcDbCircle
 10
72.79211826626852
 20
17.12485752358771
 30
0.0
 40
2.500000000000001
100
AcDbArc
 50
28.5461907311337
 51
79.86400327750827
  0
ARC
  5
443
330
32B
100
AcDbEntity
  8
0
  6
K5LT32768
 62
     5
420
      255
370
    60
100
AcDbCircle
 10
74.20000000000437
 20
25.0
 30
0.0
 40
5.499999999999996
100
AcDbArc
 50
230.7898577102545
 51
259.8640032774663
  0
ARC
  5
444
330
32B
100
AcDbEntity
  8
0
  6
K5LT32768
 62
     5
420
      255
370
    60
100
AcDbCircle
 10
72.79211826626852
 20
17.12485752358771
 30
0.0
 40
2.500000000000001
100
AcDbArc
 50
28.5461907311337
 51
79.86400327750827
  0
ARC
  5
445
330
32B
100
AcDbEntity
  8
0
  6
K5LT32768
 62
     5
420
      255
370
    60
100
AcDbCircle
 10
69.14266823515209
 20
18.80133922365349
 30
0.0
 40
2.499999999999993
100
AcDbArc
 50
50.78985771019941
 51
102.1076702568082
  0
ARC
  5
446
330
32B
100
AcDbEntity
  8
0
  6
K5LT32768
 62
     5
420
      255
370
    60
100
AcDbCircle
 10
51.05482634558575
 20
14.92110911533382
 30
0.0
 40
2.500000000000012
100
AcDbArc
 50
102.1076702568081
 51
153.4254828032548
  0
ARC
  5
447
330
32B
100
AcDbEntity
  8
0
  6
K5LT32768
 62
     5
420
      255
370
    60
100
AcDbCircle
 10
43.8999999999869
 20
18.5
 30
0.0
 40
5.500000000000007
100
AcDbArc
 50
325.8881107244372
 51
333.4254828032685
  0
ARC
  5
448
330
32B
100
AcDbEntity
  8
0
  6
K5LT32768
 62
     5
420
      255
370
    60
100
AcDbCircle
 10
43.8999999999869
 20
18.5
 30
0.0
 40
5.500000000000004
100
AcDbArc
 50
325.8881107244464
 51
333.4254828032685
  0
ARC
  5
449
330
32B
100
AcDbEntity
  8
0
  6
K5LT32768
 62
     5
420
      255
370
    60
100
AcDbCircle
 10
50.52355184220505
 20
14.01351351351332
 30
0.0
 40
2.499999999999995
100
AcDbArc
 50
145.8881107244669
 51
244.7020240431443
  0
LINE
  5
44A
330
32B
100
AcDbEntity
  8
0
  6
K5LT32768
 62
     5
420
      255
370
    60
100
AcDbLine
 10
50.53045270041184
 20
17.36549703058699
 30
0.0
 11
68.6182945899709
 21
21.24572713889938
 31
0.0
  0
LINE
  5
44B
330
32B
100
AcDbEntity
  8
0
  6
K5LT32768
 62
     5
420
      255
370
    60
100
AcDbLine
 10
55.61360911200609
 20
23.5696977476473
 30
0.0
 11
62.06243606805947
 21
24.95310947089456
 31
0.0
  0
ARC
  5
44C
330
32B
100
AcDbEntity
  8
0
  6
K5LT32768
 62
     5
420
      255
370
    60
100
AcDbCircle
 10
54.9843607377843
 20
26.50296324594819
 30
0.0
 40
2.999999999999992
100
AcDbArc
 50
215.6253532739686
 51
282.1076702567383
  0
ARC
  5
44D
330
32B
100
AcDbEntity
  8
0
  6
K5LT32768
 62
     5
420
      255
370
    60
100
AcDbCircle
 10
61.43318769384496
 20
27.88637496919546
 30
0.0
 40
2.999999999999987
100
AcDbArc
 50
282.1076702567383
 51
36.39346843412551
  0
LINE
  5
44E
330
32B
100
AcDbEntity
  8
0
  6
K5LT32768
 62
     5
420
      255
370
    60
100
AcDbLine
 10
64.20000000000437
 20
-7.0
 30
0.0
 11
75.55255128608405
 21
-7.0
 31
0.0
  0
ARC
  5
44F
330
32B
100
AcDbEntity
  8
0
  6
K5LT32768
 62
     5
420
      255
370
    60
100
AcDbCircle
 10
87.80000000000291
 20
0.0
 30
0.0
 40
13.00000000000001
100
AcDbArc
 50
217.7997224354206
 51
222.6347458999716
  0
ARC
  5
450
330
32B
100
AcDbEntity
  8
0
  6
K5LT32768
 62
     5
420
      255
370
    60
100
AcDbCircle
 10
76.39685965832177
 20
-10.49849467056629
 30
0.0
 40
2.499999999999996
100
AcDbArc
 50
331.453809269013
 51
42.63474589994543
  0
ARC
  5
451
330
32B
100
AcDbEntity
  8
0
  6
K5LT32768
 62
     5
420
      255
370
    60
100
AcDbCircle
 10
75.55255128608405
 20
-9.5
 30
0.0
 40
2.499999999999996
100
AcDbArc
 50
37.79972243541326
 51
90.0
  0
LINE
  5
452
330
32B
100
AcDbEntity
  8
0
  6
K5LT32768
 62
     5
420
      255
370
    60
100
AcDbLine
 10
78.59294003609102
 20
-11.69316239606997
 30
0.0
 11
74.98819864404504
 21
-18.31952524909866
 31
0.0
  0
ARC
  5
453
330
32B
100
AcDbEntity
  8
0
  6
K5LT32768
 62
     5
420
      255
370
    60
100
AcDbCircle
 10
74.20000000000437
 20
-25.0
 30
0.0
 40
5.500000000000013
100
AcDbArc
 50
100.1359967225338
 51
129.2101422897206
  0
ARC
  5
454
330
32B
100
AcDbEntity
  8
0
  6
K5LT32768
 62
     5
420
      255
370
    60
100
AcDbCircle
 10
72.79211826626852
 20
-17.12485752358771
 30
0.0
 40
2.499999999999979
100
AcDbArc
 50
280.1359967224918
 51
331.4538092688663
  0
ARC
  5
455
330
32B
100
AcDbEntity
  8
0
  6
K5LT32768
 62
     5
420
      255
370
    60
100
AcDbCircle
 10
74.20000000000437
 20
-25.0
 30
0.0
 40
5.500000000000013
100
AcDbArc
 50
100.1359967225338
 51
129.2101422897454
  0
ARC
  5
456
330
32B
100
AcDbEntity
  8
0
  6
K5LT32768
 62
     5
420
      255
370
    60
100
AcDbCircle
 10
72.79211826626852
 20
-17.12485752358771
 30
0.0
 40
2.499999999999979
100
AcDbArc
 50
280.1359967224918
 51
331.4538092688663
  0
ARC
  5
457
330
32B
100
AcDbEntity
  8
0
  6
K5LT32768
 62
     5
420
      255
370
    60
100
AcDbCircle
 10
69.14266823515209
 20
-18.80133922365349
 30
0.0
 40
2.499999999999985
100
AcDbArc
 50
257.8923297431917
 51
309.2101422898007
  0
LINE
  5
458
330
32B
100
AcDbEntity
  8
0
  6
K5LT32768
 62
     5
420
      255
370
    60
100
AcDbLine
 10
50.53045270041184
 20
-17.36549703058699
 30
0.0
 11
68.6182945899709
 21
-21.24572713889938
 31
0.0
  0
ARC
  5
459
330
32B
100
AcDbEntity
  8
0
  6
K5LT32768
 62
     5
420
      255
370
    60
100
AcDbCircle
 10
43.90000000000146
 20
0.0
 30
0.0
 40
43.90000000000146
100
AcDbArc
 50
333.8918221193759
 51
342.9745584572904
  0
ARC
  5
45A
330
32B
100
AcDbEntity
  8
0
  6
K5LT32768
 62
     5
420
      255
370
    60
100
AcDbCircle
 10
127.0429399400018
 20
14.0
 30
0.0
 40
9.999999999999998
100
AcDbArc
 50
240.0
 51
270.0
  0
ARC
  5
45B
330
32B
100
AcDbEntity
  8
0
  6
K5LT32768
 62
     5
420
      255
370
    60
100
AcDbCircle
 10
288.5599736186487
 20
14.0
 30
0.0
 40
10.0
100
AcDbArc
 50
270.0
 51
295.0000000000082
  0
ARC
  5
45C
330
32B
100
AcDbEntity
  8
0
  6
K5LT32768
 62
     5
420
      255
370
    60
100
AcDbCircle
 10
86.91251265932078
 20
-21.07922566727211
 30
0.0
 40
3.999999999999991
100
AcDbArc
 50
153.8918221193421
 51
257.8923297431669
  0
ARC
  5
45D
330
32B
100
AcDbEntity
  8
0
  6
K5LT32768
 62
     5
420
      255
370
    60
100
AcDbCircle
 10
90.23097577464796
 20
12.15938665268186
 30
0.0
 40
4.000000000000001
100
AcDbArc
 50
59.99999999998966
 51
194.7054178835351
  0
LINE
  5
45E
330
32B
100
AcDbEntity
  8
0
  6
K5LT32768
 62
     5
420
      255
370
    60
100
AcDbLine
 10
358.6646957317353
 20
13.20924534233927
 30
0.0
 11
340.8274928014507
 21
14.51906997959304
 31
0.0
  0
ARC
  5
45F
330
32B
100
AcDbEntity
  8
0
  6
K5LT32768
 62
     5
420
      255
370
    60
100
AcDbCircle
 10
346.9999999999927
 20
36.83752016855578
 30
0.0
 40
12.00000000000001
100
AcDbArc
 50
315.7070179380974
 51
328.4998131988839
  0
ARC
  5
460
330
32B
100
AcDbEntity
  8
0
  6
K5LT32768
 62
     5
420
      255
370
    60
100
AcDbCircle
 10
383.0015585507062
 20
26.64140293342643
 30
0.0
 40
16.00000000000002
100
AcDbArc
 50
172.8690966698556
 51
180.0
  0
LINE
  5
461
330
32B
100
AcDbEntity
  8
0
  6
K5LT32768
 62
     5
420
      255
370
    60
100
AcDbLine
 10
363.7307000733053
 20
31.99999999998545
 30
0.0
 11
359.7895769127426
 21
31.99999999998545
 31
0.0
  0
LINE
  5
462
330
32B
100
AcDbEntity
  8
0
  6
K5LT32768
 62
     5
420
      255
370
    60
100
AcDbLine
 10
363.7307000733053
 20
31.99999999998545
 30
0.0
 11
364.1485211328836
 21
31.99999999998545
 31
0.0
  0
ARC
  5
463
330
32B
100
AcDbEntity
  8
0
  6
K5LT32768
 62
     5
420
      255
370
    60
100
AcDbCircle
 10
359.7895769127499
 20
28.99999999998545
 30
0.0
 40
3.0
100
AcDbArc
 50
90.0
 51
148.4998131988721
  0
ARC
  5
464
330
32B
100
AcDbEntity
  8
0
  6
K5LT32768
 62
     5
420
      255
370
    60
100
AcDbCircle
 10
364.1485211328909
 20
28.99999999998545
 30
0.0
 40
3.00000000000002
100
AcDbArc
 50
352.8690966699072
 51
90.0
  0
ARC
  5
465
330
32B
100
AcDbEntity
  8
0
  6
K5LT32768
 62
     5
420
      255
370
    60
100
AcDbCircle
 10
341.0471977720445
 20
17.51101411774289
 30
0.0
 40
3.000000000000015
100
AcDbArc
 50
114.9999999999816
 51
265.8001842381434
  0
LINE
  5
466
330
32B
100
AcDbEntity
  8
0
  6
K5LT32768
 62
     5
420
      255
370
    60
100
AcDbLine
 10
389.3678224158066
 20
4.938492813955236
 30
0.0
 11
382.9510129489427
 21
5.40969310051878
 31
0.0
  0
ARC
  5
467
330
32B
100
AcDbEntity
  8
0
  6
K5LT32768
 62
     5
420
      255
370
    60
100
AcDbCircle
 10
368.0215585506594
 20
3.497917881410103
 30
0.0
 40
3.000000000000003
100
AcDbArc
 50
85.8001842381543
 51
180.0
  0
ARC
  5
468
330
32B
100
AcDbEntity
  8
0
  6
K5LT32768
 62
     5
420
      255
370
    60
100
AcDbCircle
 10
368.0215585506594
 20
-3.497917881410103
 30
0.0
 40
3.0
100
AcDbArc
 50
180.0
 51
274.1998157618457
  0
ARC
  5
469
330
32B
100
AcDbEntity
  8
0
  6
K5LT32768
 62
     5
420
      255
370
    60
100
AcDbCircle
 10
389.1481174451983
 20
-1.946548675790837
 30
0.0
 40
3.000000000000003
100
AcDbArc
 50
274.1998157618457
 51
8.61154154751914
  0
ARC
  5
46A
330
32B
100
AcDbEntity
  8
0
  6
K5LT32768
 62
     5
420
      255
370
    60
100
AcDbCircle
 10
389.1481174451983
 20
1.946548675790837
 30
0.0
 40
3.000000000000013
100
AcDbArc
 50
351.3884584524808
 51
85.80018423815426
  0
LINE
  5
46B
330
32B
100
AcDbEntity
  8
0
  6
K5LT32768
 62
     5
420
      255
370
    60
100
AcDbLine
 10
389.3678224157775
 20
-4.938492813969788
 30
0.0
 11
382.9510129489354
 21
-5.409693100526056
 31
0.0
  0
LINE
  5
46C
330
32B
100
AcDbEntity
  8
0
  6
K5LT32768
 62
     5
420
      255
370
    60
100
AcDbLine
 10
69.06278245252179
 20
-28.45918910353066
 30
0.0
 11
52.2487888829055
 21
-29.69387725021807
 31
0.0
  0
LINE
  5
46D
330
32B
100
AcDbEntity
  8
0
  6
K5LT32768
 62
     5
420
      255
370
    60
100
AcDbLine
 10
293.3869994679553
 20
-11.98657356361218
 30
0.0
 11
268.7367261240361
 21
-13.7966967912871
 31
0.0
  0
LINE
  5
46E
330
32B
100
AcDbEntity
  8
0
  6
K5LT32768
 62
     5
420
      255
370
    60
100
AcDbLine
 10
293.3869994679553
 20
-11.98657356361218
 30
0.0
 11
268.7367261240361
 21
-13.7966967912871
 31
0.0
  0
LINE
  5
46F
330
32B
100
AcDbEntity
  8
0
  6
K5LT32768
 62
     5
420
      255
370
    60
100
AcDbLine
 10
293.3869994679553
 20
-11.98657356361218
 30
0.0
 11
268.7367261240361
 21
-13.7966967912871
 31
0.0
  0
LINE
  5
470
330
32B
100
AcDbEntity
  8
0
  6
K5LT32768
 62
     5
420
      255
370
    60
100
AcDbLine
 10
293.3869994679553
 20
-11.98657356361218
 30
0.0
 11
268.7367261240361
 21
-13.7966967912871
 31
0.0
  0
LINE
  5
471
330
32B
100
AcDbEntity
  8
0
  6
K5LT32768
 62
     5
420
      255
370
    60
100
AcDbLine
 10
293.3869994679553
 20
-11.98657356361218
 30
0.0
 11
268.7367261240361
 21
-13.7966967912871
 31
0.0
  0
LINE
  5
472
330
32B
100
AcDbEntity
  8
0
  6
K5LT32768
 62
     5
420
      255
370
    60
100
AcDbLine
 10
293.3869994679553
 20
-11.98657356361218
 30
0.0
 11
268.7367261240361
 21
-13.7966967912871
 31
0.0
  0
LINE
  5
473
330
32B
100
AcDbEntity
  8
0
  6
K5LT32768
 62
     5
420
      255
370
    60
100
AcDbLine
 10
293.3869994679553
 20
-11.98657356361218
 30
0.0
 11
268.7367261240361
 21
-13.7966967912871
 31
0.0
  0
LINE
  5
474
330
32B
100
AcDbEntity
  8
0
  6
K5LT32768
 62
     5
420
      255
370
    60
100
AcDbLine
 10
293.3869994679553
 20
-11.98657356361218
 30
0.0
 11
268.7367261240361
 21
-13.7966967912871
 31
0.0
  0
LINE
  5
475
330
32B
100
AcDbEntity
  8
0
  6
K5LT32768
 62
     5
420
      255
370
    60
100
AcDbLine
 10
293.3869994679553
 20
-11.98657356361218
 30
0.0
 11
268.7367261240361
 21
-13.7966967912871
 31
0.0
  0
LINE
  5
476
330
32B
100
AcDbEntity
  8
0
  6
K5LT32768
 62
     5
420
      255
370
    60
100
AcDbLine
 10
374.9510129489281
 20
5.997150514049281
 30
0.0
 11
368.2412635212604
 21
6.489862019574502
 31
0.0
  0
ARC
  5
477
330
32B
100
AcDbEntity
  8
0
  6
K5LT32768
 62
     5
420
      255
370
    60
100
AcDbCircle
 10
349.7643675204017
 20
22.67927504780528
 30
0.0
 40
1.999999999999976
100
AcDbArc
 50
50.43296104709371
 51
114.9999999999476
  0
ARC
  5
478
330
32B
100
AcDbEntity
  8
0
  6
K5LT32768
 62
     5
420
      255
370
    60
100
AcDbCircle
 10
357.0208958432413
 20
27.06093351989693
 30
0.0
 40
1.999999999999986
100
AcDbArc
 50
135.7070179380986
 51
230.4329610469322
  0
ARC
  5
479
330
32B
100
AcDbEntity
  8
0
  6
K5LT32768
 62
     5
420
      255
370
    60
100
AcDbCircle
 10
365.0074780900395
 20
20.46159330043884
 30
0.0
 40
2.000000000000026
100
AcDbArc
 50
230.4329610469322
 51
358.5305418035152
  0
ARC
  5
47A
330
32B
100
AcDbEntity
  8
0
  6
K5LT32768
 62
     5
420
      255
370
    60
100
AcDbCircle
 10
358.8111657121408
 20
15.20387476777978
 30
0.0
 40
1.99999999999999
100
AcDbArc
 50
265.8001842380106
 51
50.43296104693343
  0
ARC
  5
47B
330
32B
100
AcDbEntity
  8
0
  6
K5LT32768
 62
     5
420
      255
370
    60
100
AcDbCircle
 10
374.8045429685371
 20
4.002521088608773
 30
0.0
 40
2.0
100
AcDbArc
 50
0.0
 51
85.80018423821795
  0
ARC
  5
47C
330
32B
100
AcDbEntity
  8
0
  6
K5LT32768
 62
     5
420
      255
370
    60
100
AcDbCircle
 10
382.8045429685371
 20
3.415063675078272
 30
0.0
 40
2.0
100
AcDbArc
 50
85.80018423821795
 51
180.0
  0
ARC
  5
47D
330
32B
100
AcDbEntity
  8
0
  6
K5LT32768
 62
     5
420
      255
370
    60
100
AcDbCircle
 10
374.8045429685371
 20
-4.002521088608773
 30
0.0
 40
1.99999999999999
100
AcDbArc
 50
274.1998157619894
 51
0.0
  0
ARC
  5
47E
330
32B
100
AcDbEntity
  8
0
  6
K5LT32768
 62
     5
420
      255
370
    60
100
AcDbCircle
 10
382.8045429685371
 20
-3.415063675085548
 30
0.0
 40
2.0
100
AcDbArc
 50
180.0
 51
274.1998157617821
  0
LINE
  5
47F
330
32B
100
AcDbEntity
  8
0
  6
K5LT32768
 62
     5
420
      255
370
    60
100
AcDbLine
 10
374.9510129489427
 20
-5.997150514056557
 30
0.0
 11
368.2412635213186
 21
-6.489862019574502
 31
0.0
  0
ARC
  5
480
330
32B
100
AcDbEntity
  8
0
  6
K5LT32768
 62
     5
420
      255
370
    60
100
AcDbCircle
 10
293.0208245169415
 20
-6.999999999992724
 30
0.0
 40
5.000000000000012
100
AcDbArc
 50
274.1998157618973
 51
90.0
  0
LINE
  5
481
330
32B
100
AcDbEntity
  8
0
  6
K5LT32768
 62
     5
420
      255
370
    60
100
AcDbLine
 10
327.3215585498619
 20
-0.0000000003274181
 30
0.0
 11
327.3215585498547
 21
9.711720460894867
 31
0.0
  0
LINE
  5
482
330
32B
100
AcDbEntity
  8
0
  6
K5LT32768
 62
     5
420
      255
370
    60
100
AcDbLine
 10
327.3215585498619
 20
-0.0000000003274181
 30
0.0
 11
327.3215585498619
 21
-1.130723994523578
 31
0.0
  0
ARC
  5
483
330
32B
100
AcDbEntity
  8
0
  6
K5LT32768
 62
     5
420
      255
370
    60
100
AcDbCircle
 10
293.0208245169415
 20
-6.999999999992724
 30
0.0
 40
10.99999999999999
100
AcDbArc
 50
355.986605060109
 51
32.87304908803694
  0
LINE
  5
484
330
32B
100
AcDbEntity
  8
0
  6
K5LT32768
 62
     5
420
      255
370
    60
100
AcDbLine
 10
303.5112235285778
 20
3.317835628593457
 30
0.0
 11
306.6965771099858
 21
4.803190397535218
 31
0.0
  0
LINE
  5
485
330
32B
100
AcDbEntity
  8
0
  6
K5LT32768
 62
     5
420
      255
370
    60
100
AcDbLine
 10
339.7793429868252
 20
20.22993747884902
 30
0.0
 11
348.9191309969247
 21
24.49189062187361
 31
0.0
  0
LINE
  5
486
330
32B
100
AcDbEntity
  8
0
  6
K5LT32768
 62
     5
420
      255
370
    60
100
AcDbLine
 10
293.3869994679553
 20
-11.98657356360491
 30
0.0
 11
268.7367261240361
 21
-13.79669679127255
 31
0.0
  0
LINE
  5
487
330
32B
100
AcDbEntity
  8
0
  6
K5LT32768
 62
     5
420
      255
370
    60
100
AcDbLine
 10
319.6712191487895
 20
-10.05646609982796
 30
0.0
 11
307.2061974964963
 21
-10.97179977224732
 31
0.0
  0
LINE
  5
488
330
32B
100
AcDbEntity
  8
0
  6
K5LT32768
 62
     5
420
      255
370
    60
100
AcDbLine
 10
374.9510129489354
 20
-5.997150514049281
 30
0.0
 11
368.2412635212604
 21
-6.489862019574502
 31
0.0
  0
LINE
  5
489
330
32B
100
AcDbEntity
  8
0
  6
K5LT32768
 62
     5
420
      255
370
    60
100
AcDbLine
 10
389.3678224157993
 20
-4.938492813962512
 30
0.0
 11
382.9510129489354
 21
-5.40969310051878
 31
0.0
  0
LINE
  5
48A
330
32B
100
AcDbEntity
  8
0
  6
K5LT32768
 62
     5
420
      255
370
    60
100
AcDbLine
 10
317.3057757318311
 20
9.750340961792972
 30
0.0
 11
323.0537037646209
 21
12.43064382200828
 31
0.0
  0
ARC
  5
48B
330
32B
100
AcDbEntity
  8
0
  6
K5LT32768
 62
     5
420
      255
370
    60
100
AcDbCircle
 10
318.5736305170503
 20
7.031417600679561
 30
0.0
 40
2.999999999999995
100
AcDbArc
 50
115.0000000000489
 51
224.9999999999996
  0
ARC
  5
48C
330
32B
100
AcDbEntity
  8
0
  6
K5LT32768
 62
     5
420
      255
370
    60
100
AcDbCircle
 10
324.3215585498474
 20
9.711720460894867
 30
0.0
 40
3.0
100
AcDbArc
 50
0.0
 51
115.0000000000489
  0
ARC
  5
48D
330
32B
100
AcDbEntity
  8
0
  6
K5LT32768
 62
     5
420
      255
370
    60
100
AcDbCircle
 10
325.3215585498619
 20
-1.130723994516302
 30
0.0
 40
2.000000000000016
100
AcDbArc
 50
225.0
 51
0.0
  0
ARC
  5
48E
330
32B
100
AcDbEntity
  8
0
  6
K5LT32768
 62
     5
420
      255
370
    60
100
AcDbCircle
 10
319.5247491683913
 20
-8.06183667438745
 30
0.0
 40
2.000000000000009
100
AcDbArc
 50
274.1998157617967
 51
45.00000000000005
  0
ARC
  5
48F
330
32B
100
AcDbEntity
  8
0
  6
K5LT32768
 62
     5
420
      255
370
    60
100
AcDbCircle
 10
304.7790783137971
 20
0.5989122674800456
 30
0.0
 40
2.999999999999997
100
AcDbArc
 50
114.9999999999231
 51
212.8730490879703
  0
ARC
  5
490
330
32B
100
AcDbEntity
  8
0
  6
K5LT32768
 62
     5
420
      255
370
    60
100
AcDbCircle
 10
306.9864925258953
 20
-7.979855634082924
 30
0.0
 40
3.000000000000021
100
AcDbArc
 50
175.9866050601452
 51
274.1998157618457
  0
ARC
  5
491
330
32B
100
AcDbEntity
  8
0
  6
K5LT32768
 62
     5
420
      255
370
    60
100
AcDbCircle
 10
307.9644318952051
 20
2.084267036421807
 30
0.0
 40
3.000000000000004
100
AcDbArc
 50
44.99999999990136
 51
114.9999999999231
  0
LINE
  5
492
330
32B
100
AcDbEntity
  8
0
  6
K5LT32768
 62
     5
420
      255
370
    60
100
AcDbLine
 10
69.06278245252906
 20
-28.45918910353066
 30
0.0
 11
52.2487888829055
 21
-29.69387725021807
 31
0.0
  0
LINE
  5
493
330
32B
100
AcDbEntity
  8
0
  6
K5LT32768
 62
     5
420
      255
370
    60
100
AcDbLine
 10
96.64621251659264
 20
-26.43367779332766
 30
0.0
 11
94.06820845913899
 21
-26.62298624278628
 31
0.0
  0
LINE
  5
494
330
32B
100
AcDbEntity
  8
0
  6
K5LT32768
 62
     5
420
      255
370
    60
100
AcDbLine
 10
96.64621251658536
 20
-26.43367779332766
 30
0.0
 11
94.06820845913899
 21
-26.62298624277901
 31
0.0
  0
LINE
  5
495
330
32B
100
AcDbEntity
  8
0
  6
K5LT32768
 62
     5
420
      255
370
    60
100
AcDbLine
 10
115.4130747069503
 20
-25.05558625302365
 30
0.0
 11
106.7148418773504
 21
-25.69431642306881
 31
0.0
  0
LINE
  5
496
330
32B
100
AcDbEntity
  8
0
  6
K5LT32768
 62
     5
420
      255
370
    60
100
AcDbLine
 10
115.4130747069503
 20
-25.05558625303092
 30
0.0
 11
106.7148418773504
 21
-25.69431642306881
 31
0.0
  0
LINE
  5
497
330
32B
100
AcDbEntity
  8
0
  6
K5LT32768
 62
     5
420
      255
370
    60
100
AcDbLine
 10
115.4130747069503
 20
-25.05558625303092
 30
0.0
 11
106.7148418773504
 21
-25.69431642306881
 31
0.0
  0
LINE
  5
498
330
32B
100
AcDbEntity
  8
0
  6
K5LT32768
 62
     5
420
      255
370
    60
100
AcDbLine
 10
115.4130747069503
 20
-25.05558625303092
 30
0.0
 11
106.7148418773504
 21
-25.69431642306881
 31
0.0
  0
LINE
  5
499
330
32B
100
AcDbEntity
  8
0
  6
K5LT32768
 62
     5
420
      255
370
    60
100
AcDbLine
 10
115.4130747069503
 20
-25.05558625303092
 30
0.0
 11
106.7148418773504
 21
-25.69431642306881
 31
0.0
  0
LINE
  5
49A
330
32B
100
AcDbEntity
  8
0
  6
K5LT32768
 62
     5
420
      255
370
    60
100
AcDbLine
 10
115.4130747069503
 20
-25.05558625303092
 30
0.0
 11
106.7148418773504
 21
-25.69431642306881
 31
0.0
  0
LINE
  5
49B
330
32B
100
AcDbEntity
  8
0
  6
K5LT32768
 62
     5
420
      255
370
    60
100
AcDbLine
 10
115.4130747069503
 20
-25.05558625303092
 30
0.0
 11
106.7148418773504
 21
-25.69431642306881
 31
0.0
  0
LINE
  5
49C
330
32B
100
AcDbEntity
  8
0
  6
K5LT32768
 62
     5
420
      255
370
    60
100
AcDbLine
 10
115.4130747069503
 20
-25.05558625303092
 30
0.0
 11
106.7148418773504
 21
-25.69431642306881
 31
0.0
  0
LINE
  5
49D
330
32B
100
AcDbEntity
  8
0
  6
K5LT32768
 62
     5
420
      255
370
    60
100
AcDbLine
 10
115.4130747069503
 20
-25.05558625303092
 30
0.0
 11
106.7148418773504
 21
-25.69431642306881
 31
0.0
  0
LINE
  5
49E
330
32B
100
AcDbEntity
  8
0
  6
K5LT32768
 62
     5
420
      255
370
    60
100
AcDbLine
 10
115.4130747069503
 20
-25.05558625302365
 30
0.0
 11
106.7148418773504
 21
-25.69431642306881
 31
0.0
  0
LINE
  5
49F
330
32B
100
AcDbEntity
  8
0
  6
K5LT32768
 62
     5
420
      255
370
    60
100
AcDbLine
 10
96.64621251657809
 20
-26.43367779332038
 30
0.0
 11
94.06820845913899
 21
-26.62298624277901
 31
0.0
  0
LINE
  5
4A0
330
32B
100
AcDbEntity
  8
0
  6
K5LT32768
 62
     5
420
      255
370
    60
100
AcDbLine
 10
96.64621251657809
 20
-26.43367779332766
 30
0.0
 11
94.06820845913899
 21
-26.62298624277901
 31
0.0
  0
LINE
  5
4A1
330
32B
100
AcDbEntity
  8
0
  6
K5LT32768
 62
     5
420
      255
370
    60
100
AcDbLine
 10
96.64621251658536
 20
-26.43367779332766
 30
0.0
 11
94.06820845913899
 21
-26.62298624277901
 31
0.0
  0
LINE
  5
4A2
330
32B
100
AcDbEntity
  8
0
  6
K5LT32768
 62
     5
420
      255
370
    60
100
AcDbLine
 10
96.64621251657809
 20
-26.43367779332038
 30
0.0
 11
94.06820845913899
 21
-26.62298624277901
 31
0.0
  0
LINE
  5
4A3
330
32B
100
AcDbEntity
  8
0
  6
K5LT32768
 62
     5
420
      255
370
    60
100
AcDbLine
 10
96.64621251657809
 20
-26.43367779332766
 30
0.0
 11
94.06820845913899
 21
-26.62298624277901
 31
0.0
  0
LINE
  5
4A4
330
32B
100
AcDbEntity
  8
0
  6
K5LT32768
 62
     5
420
      255
370
    60
100
AcDbLine
 10
96.64621251658536
 20
-26.43367779332766
 30
0.0
 11
94.06820845913899
 21
-26.62298624277901
 31
0.0
  0
LINE
  5
4A5
330
32B
100
AcDbEntity
  8
0
  6
K5LT32768
 62
     5
420
      255
370
    60
100
AcDbLine
 10
96.64621251657809
 20
-26.43367779332038
 30
0.0
 11
94.06820845913899
 21
-26.62298624277901
 31
0.0
  0
LINE
  5
4A6
330
32B
100
AcDbEntity
  8
0
  6
K5LT32768
 62
     5
420
      255
370
    60
100
AcDbLine
 10
96.64621251657809
 20
-26.43367779332038
 30
0.0
 11
94.06820845913899
 21
-26.62298624277901
 31
0.0
  0
LINE
  5
4A7
330
32B
100
AcDbEntity
  8
0
  6
K5LT32768
 62
     5
420
      255
370
    60
100
AcDbLine
 10
147.2569347312892
 20
-22.71722229720035
 30
0.0
 11
147.1258882949041
 21
-22.72684532227868
 31
0.0
  0
LINE
  5
4A8
330
32B
100
AcDbEntity
  8
0
  6
K5LT32768
 62
     5
420
      255
370
    60
100
AcDbLine
 10
147.2569347312892
 20
-22.71722229720035
 30
0.0
 11
147.1258882949041
 21
-22.72684532227868
 31
0.0
  0
LINE
  5
4A9
330
32B
100
AcDbEntity
  8
0
  6
K5LT32768
 62
     5
420
      255
370
    60
100
AcDbLine
 10
147.2569347312819
 20
-22.71722229720035
 30
0.0
 11
147.1258882949041
 21
-22.7268453222714
 31
0.0
  0
LINE
  5
4AA
330
32B
100
AcDbEntity
  8
0
  6
K5LT32768
 62
     5
420
      255
370
    60
100
AcDbLine
 10
147.2569347312819
 20
-22.71722229720035
 30
0.0
 11
147.1258882949041
 21
-22.7268453222714
 31
0.0
  0
LINE
  5
4AB
330
32B
100
AcDbEntity
  8
0
  6
K5LT32768
 62
     5
420
      255
370
    60
100
AcDbLine
 10
147.2569347312819
 20
-22.71722229720035
 30
0.0
 11
147.1258882949041
 21
-22.7268453222714
 31
0.0
  0
LINE
  5
4AC
330
32B
100
AcDbEntity
  8
0
  6
K5LT32768
 62
     5
420
      255
370
    60
100
AcDbLine
 10
147.2569347312819
 20
-22.71722229720035
 30
0.0
 11
147.1258882949041
 21
-22.7268453222714
 31
0.0
  0
LINE
  5
4AD
330
32B
100
AcDbEntity
  8
0
  6
K5LT32768
 62
     5
420
      255
370
    60
100
AcDbLine
 10
147.2569347312819
 20
-22.71722229720035
 30
0.0
 11
147.1258882949041
 21
-22.7268453222714
 31
0.0
  0
LINE
  5
4AE
330
32B
100
AcDbEntity
  8
0
  6
K5LT32768
 62
     5
420
      255
370
    60
100
AcDbLine
 10
147.2569347312819
 20
-22.71722229720035
 30
0.0
 11
147.1258882949041
 21
-22.7268453222714
 31
0.0
  0
LINE
  5
4AF
330
32B
100
AcDbEntity
  8
0
  6
K5LT32768
 62
     5
420
      255
370
    60
100
AcDbLine
 10
147.2569347312819
 20
-22.71722229720035
 30
0.0
 11
147.1258882949041
 21
-22.7268453222714
 31
0.0
  0
LINE
  5
4B0
330
32B
100
AcDbEntity
  8
0
  6
K5LT32768
 62
     5
420
      255
370
    60
100
AcDbLine
 10
139.6669791125096
 20
-23.27456925927254
 30
0.0
 11
126.0750603998167
 21
-24.27265343574982
 31
0.0
  0
LINE
  5
4B1
330
32B
100
AcDbEntity
  8
0
  6
K5LT32768
 62
     5
420
      255
370
    60
100
AcDbLine
 10
200.1852857013437
 20
-18.83057827680022
 30
0.0
 11
165.0218227251171
 21
-21.41270790313865
 31
0.0
  0
LINE
  5
4B2
330
32B
100
AcDbEntity
  8
0
  6
K5LT32768
 62
     5
420
      255
370
    60
100
AcDbLine
 10
200.1852857013437
 20
-18.83057827682205
 30
0.0
 11
165.0218227251171
 21
-21.41270790314593
 31
0.0
  0
LINE
  5
4B3
330
32B
100
AcDbEntity
  8
0
  6
K5LT32768
 62
     5
420
      255
370
    60
100
AcDbLine
 10
200.1852857013437
 20
-18.83057827680022
 30
0.0
 11
165.0218227251171
 21
-21.41270790313865
 31
0.0
  0
LINE
  5
4B4
330
32B
100
AcDbEntity
  8
0
  6
K5LT32768
 62
     5
420
      255
370
    60
100
AcDbLine
 10
200.1852857013437
 20
-18.83057827682205
 30
0.0
 11
165.0218227251171
 21
-21.41270790314593
 31
0.0
  0
LINE
  5
4B5
330
32B
100
AcDbEntity
  8
0
  6
K5LT32768
 62
     5
420
      255
370
    60
100
AcDbLine
 10
200.1852857013437
 20
-18.83057827680022
 30
0.0
 11
165.0218227251171
 21
-21.41270790313865
 31
0.0
  0
LINE
  5
4B6
330
32B
100
AcDbEntity
  8
0
  6
K5LT32768
 62
     5
420
      255
370
    60
100
AcDbLine
 10
200.1852857013437
 20
-18.83057827682205
 30
0.0
 11
165.0218227251171
 21
-21.41270790314593
 31
0.0
  0
LINE
  5
4B7
330
32B
100
AcDbEntity
  8
0
  6
K5LT32768
 62
     5
420
      255
370
    60
100
AcDbLine
 10
200.1852857013437
 20
-18.83057827680022
 30
0.0
 11
165.0218227251171
 21
-21.41270790313865
 31
0.0
  0
LINE
  5
4B8
330
32B
100
AcDbEntity
  8
0
  6
K5LT32768
 62
     5
420
      255
370
    60
100
AcDbLine
 10
200.1852857013437
 20
-18.83057827682205
 30
0.0
 11
165.0218227251171
 21
-21.41270790314593
 31
0.0
  0
LINE
  5
4B9
330
32B
100
AcDbEntity
  8
0
  6
K5LT32768
 62
     5
420
      255
370
    60
100
AcDbLine
 10
200.1852857013437
 20
-18.83057827680022
 30
0.0
 11
165.0218227251171
 21
-21.41270790313865
 31
0.0
  0
LINE
  5
4BA
330
32B
100
AcDbEntity
  8
0
  6
K5LT32768
 62
     5
420
      255
370
    60
100
AcDbLine
 10
200.1852857013437
 20
-18.83057827681478
 30
0.0
 11
156.2887434443983
 21
-22.05399692393985
 31
0.0
  0
LINE
  5
4BB
330
32B
100
AcDbEntity
  8
0
  6
K5LT32768
 62
     5
420
      255
370
    60
100
AcDbLine
 10
258.680426460669
 20
-14.53515276502003
 30
0.0
 11
215.9952778710795
 21
-17.66961613831518
 31
0.0
  0
LINE
  5
4BC
330
32B
100
AcDbEntity
  8
0
  6
K5LT32768
 62
     5
420
      255
370
    60
100
AcDbLine
 10
258.680426460669
 20
-14.53515276502003
 30
0.0
 11
215.9952778710795
 21
-17.66961613832245
 31
0.0
  0
LINE
  5
4BD
330
32B
100
AcDbEntity
  8
0
  6
K5LT32768
 62
     5
420
      255
370
    60
100
AcDbLine
 10
258.680426460669
 20
-14.53515276502003
 30
0.0
 11
215.9952778710795
 21
-17.66961613832245
 31
0.0
  0
LINE
  5
4BE
330
32B
100
AcDbEntity
  8
0
  6
K5LT32768
 62
     5
420
      255
370
    60
100
AcDbLine
 10
258.680426460669
 20
-14.53515276502003
 30
0.0
 11
215.9952778710795
 21
-17.66961613832245
 31
0.0
  0
LINE
  5
4BF
330
32B
100
AcDbEntity
  8
0
  6
K5LT32768
 62
     5
420
      255
370
    60
100
AcDbLine
 10
258.680426460669
 20
-14.53515276502003
 30
0.0
 11
215.9952778710795
 21
-17.66961613832245
 31
0.0
  0
LINE
  5
4C0
330
32B
100
AcDbEntity
  8
0
  6
K5LT32768
 62
     5
420
      255
370
    60
100
AcDbLine
 10
258.680426460669
 20
-14.53515276502003
 30
0.0
 11
215.9952778710795
 21
-17.66961613832245
 31
0.0
  0
LINE
  5
4C1
330
32B
100
AcDbEntity
  8
0
  6
K5LT32768
 62
     5
420
      255
370
    60
100
AcDbLine
 10
258.680426460669
 20
-14.53515276502003
 30
0.0
 11
215.9952778710795
 21
-17.66961613832245
 31
0.0
  0
LINE
  5
4C2
330
32B
100
AcDbEntity
  8
0
  6
K5LT32768
 62
     5
420
      255
370
    60
100
AcDbLine
 10
258.680426460669
 20
-14.53515276502003
 30
0.0
 11
215.9952778710795
 21
-17.66961613832245
 31
0.0
  0
LINE
  5
4C3
330
32B
100
AcDbEntity
  8
0
  6
K5LT32768
 62
     5
420
      255
370
    60
100
AcDbLine
 10
258.680426460669
 20
-14.53515276502003
 30
0.0
 11
215.9952778710795
 21
-17.66961613832245
 31
0.0
  0
LINE
  5
4C4
330
32B
100
AcDbEntity
  8
0
  6
K5LT32768
 62
     5
420
      255
370
    60
100
AcDbLine
 10
258.680426460669
 20
-14.53515276502003
 30
0.0
 11
210.3049576440972
 21
-18.08746873866039
 31
0.0
  0
LINE
  5
4C5
330
32B
100
AcDbEntity
  8
0
  6
K5LT32768
 62
     5
420
      255
370
    60
100
AcDbLine
 10
126.6970047326904
 20
-18.80574399739271
 30
0.0
 11
139.7806395694497
 21
-21.29487473616609
 31
0.0
  0
LINE
  5
4C6
330
32B
100
AcDbEntity
  8
0
  6
K5LT32768
 62
     5
420
      255
370
    60
100
AcDbLine
 10
108.9752252462713
 20
-15.43421715369186
 30
0.0
 11
116.8538871407873
 21
-16.93311403875123
 31
0.0
  0
LINE
  5
4C7
330
32B
100
AcDbEntity
  8
0
  6
K5LT32768
 62
     5
420
      255
370
    60
100
AcDbLine
 10
88.16221592829243
 20
-11.47459110894124
 30
0.0
 11
100.1052280494696
 21
-13.74672106022626
 31
0.0
  0
LINE
  5
4C8
330
32B
100
AcDbEntity
  8
0
  6
K5LT32768
 62
     5
420
      255
370
    60
100
AcDbLine
 10
127.8183774155841
 20
-12.91146513514104
 30
0.0
 11
146.4998189676116
 21
-16.46556542851613
 31
0.0
  0
LINE
  5
4C9
330
32B
100
AcDbEntity
  8
0
  6
K5LT32768
 62
     5
420
      255
370
    60
100
AcDbLine
 10
110.096597929165
 20
-9.539938291440194
 30
0.0
 11
117.975259823681
 21
-11.03883517649956
 31
0.0
  0
LINE
  5
4CA
330
32B
100
AcDbEntity
  8
0
  6
K5LT32768
 62
     5
420
      255
370
    60
100
AcDbLine
 10
89.28358861118613
 20
-5.580312246682297
 30
0.0
 11
101.2266007323633
 21
-7.852442197967321
 31
0.0
  0
ARC
  5
4CB
330
32B
100
AcDbEntity
  8
0
  6
K5LT32768
 62
     5
420
      255
370
    60
100
AcDbCircle
 10
43.90000000000146
 20
0.0
 30
0.0
 40
43.90000000000147
100
AcDbArc
 50
355.4821191416527
 51
14.70541788352402
  0
ARC
  5
4CC
330
32B
100
AcDbEntity
  8
0
  6
K5LT32768
 62
     5
420
      255
370
    60
100
AcDbCircle
 10
89.65737950548646
 20
-3.615552625931741
 30
0.0
 40
1.999999999999999
100
AcDbArc
 50
175.4821191416587
 51
259.2283387994185
  0
ARC
  5
4CD
330
32B
100
AcDbEntity
  8
0
  6
K5LT32768
 62
     5
420
      255
370
    60
100
AcDbCircle
 10
87.78842503399937
 20
-13.43935072968452
 30
0.0
 40
1.999999999999989
100
AcDbArc
 50
79.22833879941868
 51
162.974558457223
  0
ARC
  5
4CE
330
32B
100
AcDbEntity
  8
0
  6
K5LT32768
 62
     5
420
      255
370
    60
100
AcDbCircle
 10
99.73143715516926
 20
-15.71148068097682
 30
0.0
 40
1.99999999999999
100
AcDbArc
 50
344.2829090815688
 51
79.22833879941868
  0
ARC
  5
4CF
330
32B
100
AcDbEntity
  8
0
  6
K5LT32768
 62
     5
420
      255
370
    60
100
AcDbCircle
 10
93.92173847873346
 20
-24.62835681733122
 30
0.0
 40
2.000000000000003
100
AcDbArc
 50
257.8923297431307
 51
274.1998157619745
  0
ARC
  5
4D0
330
32B
100
AcDbEntity
  8
0
  6
K5LT32768
 62
     5
420
      255
370
    60
100
AcDbCircle
 10
96.49974253617984
 20
-24.43904836788715
 30
0.0
 40
2.000000000000028
100
AcDbArc
 50
274.1998157617818
 51
335.0793368147258
  0
ARC
  5
4D1
330
32B
100
AcDbEntity
  8
0
  6
K5LT32768
 62
     5
420
      255
370
    60
100
AcDbCircle
 10
106.5683718969522
 20
-23.69968699762831
 30
0.0
 40
1.999999999999999
100
AcDbArc
 50
159.2845748059303
 51
274.199815761782
  0
ARC
  5
4D2
330
32B
100
AcDbEntity
  8
0
  6
K5LT32768
 62
     5
420
      255
370
    60
100
AcDbCircle
 10
108.601434351971
 20
-17.39897677444242
 30
0.0
 40
1.99999999999999
100
AcDbArc
 50
79.22833879941848
 51
164.9485555991889
  0
ARC
  5
4D3
330
32B
100
AcDbEntity
  8
0
  6
K5LT32768
 62
     5
420
      255
370
    60
100
AcDbCircle
 10
116.4800962464869
 20
-18.89787365950178
 30
0.0
 40
1.999999999999996
100
AcDbArc
 50
345.4057850701207
 51
79.22833879941842
  0
ARC
  5
4D4
330
32B
100
AcDbEntity
  8
0
  6
K5LT32768
 62
     5
420
      255
370
    60
100
AcDbCircle
 10
115.266604726552
 20
-23.06095682759042
 30
0.0
 40
2.000000000000028
100
AcDbArc
 50
274.199815761782
 51
342.0926056261184
  0
ARC
  5
4D5
330
32B
100
AcDbEntity
  8
0
  6
K5LT32768
 62
     5
420
      255
370
    60
100
AcDbCircle
 10
125.9285904194185
 20
-22.27802401030931
 30
0.0
 40
2.000000000000003
100
AcDbArc
 50
164.8056271957929
 51
274.199815761782
  0
ARC
  5
4D6
330
32B
100
AcDbEntity
  8
0
  6
K5LT32768
 62
     5
420
      255
370
    60
100
AcDbCircle
 10
126.3232138383901
 20
-20.77050361814327
 30
0.0
 40
1.99999999999999
100
AcDbArc
 50
79.22833879941848
 51
165.8560521159694
  0
ARC
  5
4D7
330
32B
100
AcDbEntity
  8
0
  6
K5LT32768
 62
     5
420
      255
370
    60
100
AcDbCircle
 10
110.4703888234653
 20
-7.575178670689638
 30
0.0
 40
2.000000000000006
100
AcDbArc
 50
173.5081219998007
 51
259.2283387994185
  0
ARC
  5
4D8
330
32B
100
AcDbEntity
  8
0
  6
K5LT32768
 62
     5
420
      255
370
    60
100
AcDbCircle
 10
118.3490507179813
 20
-9.074075555749005
 30
0.0
 40
1.99999999999999
100
AcDbArc
 50
259.2283387994185
 51
353.0508925287819
  0
ARC
  5
4D9
330
32B
100
AcDbEntity
  8
0
  6
K5LT32768
 62
     5
420
      255
370
    60
100
AcDbCircle
 10
118.8715158562918
 20
-2.066835796445957
 30
0.0
 40
1.999999999999998
100
AcDbArc
 50
358.4208538399396
 51
59.99999999986126
  0
ARC
  5
4DA
330
32B
100
AcDbEntity
  8
0
  6
K5LT32768
 62
     5
420
      255
370
    60
100
AcDbCircle
 10
110.8509272283336
 20
2.56385320697882
 30
0.0
 40
2.000000000000001
100
AcDbArc
 50
59.99999999993751
 51
182.1930424283372
  0
ARC
  5
4DB
330
32B
100
AcDbEntity
  8
0
  6
K5LT32768
 62
     5
420
      255
370
    60
100
AcDbCircle
 10
101.337760308299
 20
8.056282689103682
 30
0.0
 40
2.000000000000005
100
AcDbArc
 50
7.98428148109533
 51
60.00000000004182
  0
ARC
  5
4DC
330
32B
100
AcDbEntity
  8
0
  6
K5LT32768
 62
     5
420
      255
370
    60
100
AcDbCircle
 10
128.8058301885103
 20
-4.0
 30
0.0
 40
2.0
100
AcDbArc
 50
90.0
 51
177.3027318660625
  0
ARC
  5
4DD
330
32B
100
AcDbEntity
  8
0
  6
K5LT32768
 62
     5
420
      255
370
    60
100
AcDbCircle
 10
147.7985490180727
 20
-4.0
 30
0.0
 40
1.999999999999994
100
AcDbArc
 50
357.5931514134575
 51
90.0
  0
ARC
  5
4DE
330
32B
100
AcDbEntity
  8
0
  6
K5LT32768
 62
     5
420
      255
370
    60
100
AcDbCircle
 10
146.873609861912
 20
-14.50080580776557
 30
0.0
 40
1.99999999999999
100
AcDbArc
 50
259.2283387994185
 51
352.3392994505183
  0
ARC
  5
4DF
330
32B
100
AcDbEntity
  8
0
  6
K5LT32768
 62
     5
420
      255
370
    60
100
AcDbCircle
 10
101.6003916266636
 20
-5.887682577224041
 30
0.0
 40
1.99999999999999
100
AcDbArc
 50
259.2283387994185
 51
354.1737685174288
  0
ARC
  5
4E0
330
32B
100
AcDbEntity
  8
0
  6
K5LT32768
 62
     5
420
      255
370
    60
100
AcDbCircle
 10
139.5937441222995
 20
-22.27725454654137
 30
0.0
 40
0.9999999999999765
100
AcDbArc
 50
274.1998157619748
 51
79.22833879941925
  0
LINE
  5
4E1
330
32B
100
AcDbEntity
  8
0
  6
K5LT32768
 62
     5
420
      255
370
    60
100
AcDbLine
 10
139.6669791125096
 20
-23.27456925927254
 30
0.0
 11
126.0750603998167
 21
-24.27265343574982
 31
0.0
  0
LINE
  5
4E2
330
32B
100
AcDbEntity
  8
0
  6
K5LT32768
 62
     5
420
      255
370
    60
100
AcDbLine
 10
139.6669791125096
 20
-23.27456925927254
 30
0.0
 11
126.0750603998167
 21
-24.27265343574982
 31
0.0
  0
LINE
  5
4E3
330
32B
100
AcDbEntity
  8
0
  6
K5LT32768
 62
     5
420
      255
370
    60
100
AcDbLine
 10
139.6669791125096
 20
-23.27456925927254
 30
0.0
 11
126.0750603998167
 21
-24.27265343574982
 31
0.0
  0
LINE
  5
4E4
330
32B
100
AcDbEntity
  8
0
  6
K5LT32768
 62
     5
420
      255
370
    60
100
AcDbLine
 10
139.6669791125096
 20
-23.27456925927254
 30
0.0
 11
126.0750603998167
 21
-24.27265343574982
 31
0.0
  0
LINE
  5
4E5
330
32B
100
AcDbEntity
  8
0
  6
K5LT32768
 62
     5
420
      255
370
    60
100
AcDbLine
 10
139.6669791125096
 20
-23.27456925927254
 30
0.0
 11
126.0750603998167
 21
-24.27265343574982
 31
0.0
  0
LINE
  5
4E6
330
32B
100
AcDbEntity
  8
0
  6
K5LT32768
 62
     5
420
      255
370
    60
100
AcDbLine
 10
139.6669791125096
 20
-23.27456925927254
 30
0.0
 11
126.0750603998167
 21
-24.27265343574982
 31
0.0
  0
LINE
  5
4E7
330
32B
100
AcDbEntity
  8
0
  6
K5LT32768
 62
     5
420
      255
370
    60
100
AcDbLine
 10
139.6669791125096
 20
-23.27456925927254
 30
0.0
 11
126.0750603998167
 21
-24.27265343574982
 31
0.0
  0
LINE
  5
4E8
330
32B
100
AcDbEntity
  8
0
  6
K5LT32768
 62
     5
420
      255
370
    60
100
AcDbLine
 10
139.6669791125096
 20
-23.27456925927254
 30
0.0
 11
126.0750603998167
 21
-24.27265343574982
 31
0.0
  0
LINE
  5
4E9
330
32B
100
AcDbEntity
  8
0
  6
K5LT32768
 62
     5
420
      255
370
    60
100
AcDbLine
 10
139.6669791125096
 20
-23.27456925927254
 30
0.0
 11
126.0750603998167
 21
-24.27265343574982
 31
0.0
  0
LINE
  5
4EA
330
32B
100
AcDbEntity
  8
0
  6
K5LT32768
 62
     5
420
      255
370
    60
100
AcDbLine
 10
293.0208245169415
 20
-1.999999999992724
 30
0.0
 11
268.8644416346724
 21
-2.0
 31
0.0
  0
LINE
  5
4EB
330
32B
100
AcDbEntity
  8
0
  6
K5LT32768
 62
     5
420
      255
370
    60
100
AcDbLine
 10
160.8829047339896
 20
-2.0
 30
0.0
 11
157.8066714249435
 21
-2.0
 31
0.0
  0
LINE
  5
4EC
330
32B
100
AcDbEntity
  8
0
  6
K5LT32768
 62
     5
420
      255
370
    60
100
AcDbLine
 10
258.8627874772792
 20
-2.0
 30
0.0
 11
210.854279741885
 21
-2.0
 31
0.0
  0
LINE
  5
4ED
330
32B
100
AcDbEntity
  8
0
  6
K5LT32768
 62
     5
420
      255
370
    60
100
AcDbLine
 10
147.7985490180727
 20
-2.0
 30
0.0
 11
128.8058301885103
 21
-2.0
 31
0.0
  0
ARC
  5
4EE
330
32B
100
AcDbEntity
  8
0
  6
K5LT32768
 62
     5
420
      255
370
    60
100
AcDbCircle
 10
128.1921683098844
 20
-10.94670551439049
 30
0.0
 40
2.000000000000003
100
AcDbArc
 50
172.6006254829427
 51
259.2283387994185
  0
LINE
  5
4EF
330
32B
100
AcDbEntity
  8
0
  6
K5LT32768
 62
     5
420
      255
370
    60
100
AcDbLine
 10
200.8515080258439
 20
-1.999999999992724
 30
0.0
 11
160.8829047339968
 21
-2.000000000007276
 31
0.0
  0
ARC
  5
4F0
330
32B
100
AcDbEntity
  8
0
  6
K5LT32768
 62
     5
420
      255
370
    60
100
AcDbCircle
 10
157.8066714249435
 20
-4.0
 30
0.0
 40
2.0
100
AcDbArc
 50
90.0
 51
177.785799388565
  0
ARC
  5
4F1
330
32B
100
AcDbEntity
  8
0
  6
K5LT32768
 62
     5
420
      255
370
    60
100
AcDbCircle
 10
156.142273464
 20
-20.05936749849934
 30
0.0
 40
1.999999999999992
100
AcDbArc
 50
170.380145367158
 51
274.199815761782
  0
ARC
  5
4F2
330
32B
100
AcDbEntity
  8
0
  6
K5LT32768
 62
     5
420
      255
370
    60
100
AcDbCircle
 10
200.0388157209454
 20
-16.83594885137427
 30
0.0
 40
2.000000000000028
100
AcDbArc
 50
274.199815761782
 51
354.1435724033668
  0
ARC
  5
4F3
330
32B
100
AcDbEntity
  8
0
  6
K5LT32768
 62
     5
420
      255
370
    60
100
AcDbCircle
 10
200.8515080258439
 20
-4.0
 30
0.0
 40
2.000000000000005
100
AcDbArc
 50
358.610875319445
 51
90.0
  0
ARC
  5
4F4
330
32B
100
AcDbEntity
  8
0
  6
K5LT32768
 62
     5
420
      255
370
    60
100
AcDbCircle
 10
210.854279741885
 20
-4.0
 30
0.0
 40
2.0
100
AcDbArc
 50
90.0
 51
178.690268121052
  0
ARC
  5
4F5
330
32B
100
AcDbEntity
  8
0
  6
K5LT32768
 62
     5
420
      255
370
    60
100
AcDbCircle
 10
210.1584876636989
 20
-16.09283931321988
 30
0.0
 40
2.000000000000012
100
AcDbArc
 50
174.7236783180368
 51
274.199815761782
  0
ARC
  5
4F6
330
32B
100
AcDbEntity
  8
0
  6
K5LT32768
 62
     5
420
      255
370
    60
100
AcDbCircle
 10
258.5339564802634
 20
-12.54052333957225
 30
0.0
 40
1.99999999999999
100
AcDbArc
 50
274.1998157619894
 51
356.6561530027093
  0
ARC
  5
4F7
330
32B
100
AcDbEntity
  8
0
  6
K5LT32768
 62
     5
420
      255
370
    60
100
AcDbCircle
 10
258.8627874772792
 20
-4.0
 30
0.0
 40
1.999999999999996
100
AcDbArc
 50
358.9339705050307
 51
90.0
  0
ARC
  5
4F8
330
32B
100
AcDbEntity
  8
0
  6
K5LT32768
 62
     5
420
      255
370
    60
100
AcDbCircle
 10
268.8644416346724
 20
-4.0
 30
0.0
 40
2.0
100
AcDbArc
 50
90.0
 51
178.9813547023014
  0
ARC
  5
4F9
330
32B
100
AcDbEntity
  8
0
  6
K5LT32768
 62
     5
420
      255
370
    60
100
AcDbCircle
 10
268.5902561436378
 20
-11.80206736583204
 30
0.0
 40
1.999999999999993
100
AcDbArc
 50
176.9932483598971
 51
274.1998157617821
  0
ARC
  5
4FA
330
32B
100
AcDbEntity
  8
0
  6
K5LT32768
 62
     5
420
      255
370
    60
100
AcDbCircle
 10
-44.79118216792267
 20
8.0
 30
0.0
 40
3.0
100
AcDbArc
 50
270.0
 51
349.8733763940982
  0
ARC
  5
4FB
330
32B
100
AcDbEntity
  8
0
  6
K5LT32768
 62
     5
420
      255
370
    60
100
AcDbCircle
 10
-41.86521443121455
 20
17.82003986046038
 30
0.0
 40
3.000000000000001
100
AcDbArc
 50
336.942841845349
 51
60.00000000000736
  0
ARC
  5
4FC
330
32B
100
AcDbEntity
  8
0
  6
K5LT32768
 62
     5
420
      255
370
    60
100
AcDbCircle
 10
-56.37980547406187
 20
26.20004290622455
 30
0.0
 40
2.999999999999984
100
AcDbArc
 50
60.00000000000704
 51
138.7750459750214
  0
INSERT
  5
4FE
330
32B
100
AcDbEntity
  8
0
100
AcDbBlockReference
  2
U18
 10
0.0
 20
0.0
 30
0.0
  0
INSERT
  5
505
330
32B
100
AcDbEntity
  8
0
100
AcDbBlockReference
  2
U19
 10
0.0
 20
0.0
 30
0.0
  0
INSERT
  5
50C
330
32B
100
AcDbEntity
  8
0
100
AcDbBlockReference
  2
U20
 10
0.0
 20
0.0
 30
0.0
  0
INSERT
  5
512
330
32B
100
AcDbEntity
  8
0
100
AcDbBlockReference
  2
U21
 10
0.0
 20
0.0
 30
0.0
  0
INSERT
  5
519
330
32B
100
AcDbEntity
  8
0
100
AcDbBlockReference
  2
U22
 10
0.0
 20
0.0
 30
0.0
  0
INSERT
  5
520
330
32B
100
AcDbEntity
  8
0
100
AcDbBlockReference
  2
U23
 10
0.0
 20
0.0
 30
0.0
  0
INSERT
  5
526
330
32B
100
AcDbEntity
  8
0
100
AcDbBlockReference
  2
U24
 10
0.0
 20
0.0
 30
0.0
  0
INSERT
  5
52C
330
32B
100
AcDbEntity
  8
0
100
AcDbBlockReference
  2
U25
 10
0.0
 20
0.0
 30
0.0
  0
INSERT
  5
532
330
32B
100
AcDbEntity
  8
0
100
AcDbBlockReference
  2
U26
 10
0.0
 20
0.0
 30
0.0
  0
INSERT
  5
538
330
32B
100
AcDbEntity
  8
0
100
AcDbBlockReference
  2
U27
 10
0.0
 20
0.0
 30
0.0
  0
INSERT
  5
53E
330
32B
100
AcDbEntity
  8
0
100
AcDbBlockReference
  2
U28
 10
0.0
 20
0.0
 30
0.0
  0
INSERT
  5
544
330
32B
100
AcDbEntity
  8
0
100
AcDbBlockReference
  2
U29
 10
0.0
 20
0.0
 30
0.0
  0
INSERT
  5
54C
330
32B
100
AcDbEntity
  8
0
100
AcDbBlockReference
  2
U30
 10
0.0
 20
0.0
 30
0.0
  0
INSERT
  5
553
330
32B
100
AcDbEntity
  8
0
100
AcDbBlockReference
  2
U31
 10
0.0
 20
0.0
 30
0.0
  0
INSERT
  5
55A
330
32B
100
AcDbEntity
  8
0
100
AcDbBlockReference
  2
U32
 10
0.0
 20
0.0
 30
0.0
  0
INSERT
  5
561
330
32B
100
AcDbEntity
  8
0
100
AcDbBlockReference
  2
U33
 10
0.0
 20
0.0
 30
0.0
  0
ENDBLK
  5
56A
330
32B
100
AcDbEntity
  8
0
100
AcDbBlockEnd
  0
BLOCK
  5
502
330
4FD
100
AcDbEntity
  8
0
100
AcDbBlockBegin
  2
U18
 70
     0
 10
0.0
 20
0.0
 30
0.0
  3
U18
  1

  0
ARC
  5
4FF
330
4FD
100
AcDbEntity
  8
0
  6
K5LT32768
 62
     5
420
      255
370
    60
100
AcDbCircle
 10
43.90000000000146
 20
84.0
 30
0.0
 40
113.9999999999973
100
AcDbArc
 50
258.7250802410824
 51
274.1998157618841
  0
ARC
  5
500
330
4FD
100
AcDbEntity
  8
0
  6
K5LT32768
 62
     5
420
      255
370
    60
100
AcDbCircle
 10
43.90000000000146
 20
84.0
 30
0.0
 40
113.9999999999973
100
AcDbArc
 50
244.8357942981202
 51
251.171445855178
  0
ARC
  5
501
330
4FD
100
AcDbEntity
  8
0
  6
K5LT32768
 62
     5
420
      255
370
    60
100
AcDbCircle
 10
43.90000000000146
 20
84.0
 30
0.0
 40
113.9999999999973
100
AcDbArc
 50
230.7448964149203
 51
239.4287634500753
  0
ENDBLK
  5
503
330
4FD
100
AcDbEntity
  8
0
100
AcDbBlockEnd
  0
BLOCK
  5
509
330
504
100
AcDbEntity
  8
0
100
AcDbBlockBegin
  2
U19
 70
     0
 10
0.0
 20
0.0
 30
0.0
  3
U19
  1

  0
ARC
  5
506
330
504
100
AcDbEntity
  8
0
  6
K5LT32768
 62
     5
420
      255
370
    60
100
AcDbCircle
 10
-10.5
 20
-14.0
 30
0.0
 40
63.99999999999999
100
AcDbArc
 50
98.25666266211326
 51
99.3227577733337
  0
ARC
  5
507
330
504
100
AcDbEntity
  8
0
  6
K5LT32768
 62
     5
420
      255
370
    60
100
AcDbCircle
 10
-10.5
 20
-14.0
 30
0.0
 40
63.99999999999998
100
AcDbArc
 50
108.716738513571
 51
127.9763400232456
  0
ARC
  5
508
330
504
100
AcDbEntity
  8
0
  6
K5LT32768
 62
     5
420
      255
370
    60
100
AcDbCircle
 10
-10.5
 20
-14.0
 30
0.0
 40
64.0
100
AcDbArc
 50
138.7750459750898
 51
145.5984012508824
  0
ENDBLK
  5
50A
330
504
100
AcDbEntity
  8
0
100
AcDbBlockEnd
  0
BLOCK
  5
50F
330
50B
100
AcDbEntity
  8
0
100
AcDbBlockBegin
  2
U20
 70
     0
 10
0.0
 20
0.0
 30
0.0
  3
U20
  1

  0
ARC
  5
50D
330
50B
100
AcDbEntity
  8
0
  6
K5LT32768
 62
     5
420
      255
370
    60
100
AcDbCircle
 10
37.5
 20
-44.0
 30
0.0
 40
93.99999999999999
100
AcDbArc
 50
80.30064629346909
 51
82.91195784102618
  0
ARC
  5
50E
330
50B
100
AcDbEntity
  8
0
  6
K5LT32768
 62
     5
420
      255
370
    60
100
AcDbCircle
 10
37.5
 20
-44.0
 30
0.0
 40
94.0
100
AcDbArc
 50
88.06344465408822
 51
89.38753308040273
  0
ENDBLK
  5
510
330
50B
100
AcDbEntity
  8
0
100
AcDbBlockEnd
  0
BLOCK
  5
516
330
511
100
AcDbEntity
  8
0
100
AcDbBlockBegin
  2
U21
 70
     0
 10
0.0
 20
0.0
 30
0.0
  3
U21
  1

  0
LINE
  5
513
330
511
100
AcDbEntity
  8
0
  6
K5LT32768
 62
     5
420
      255
370
    60
100
AcDbLine
 10
37.26954729959107
 20
17.36549703058699
 30
0.0
 11
19.18170541003201
 21
21.24572713889938
 31
0.0
  0
LINE
  5
514
330
511
100
AcDbEntity
  8
0
  6
K5LT32768
 62
     5
420
      255
370
    60
100
AcDbLine
 10
38.55784264857357
 20
22.20288466369675
 30
0.0
 11
34.82098064095044
 21
23.00452172803489
 31
0.0
  0
LINE
  5
515
330
511
100
AcDbEntity
  8
0
  6
K5LT32768
 62
     5
420
      255
370
    60
100
AcDbLine
 10
26.95406201509468
 20
24.69214453556197
 30
0.0
 11
23.95128164721973
 21
25.33630534054828
 31
0.0
  0
ENDBLK
  5
517
330
511
100
AcDbEntity
  8
0
100
AcDbBlockEnd
  0
BLOCK
  5
51D
330
518
100
AcDbEntity
  8
0
100
AcDbBlockBegin
  2
U22
 70
     0
 10
0.0
 20
0.0
 30
0.0
  3
U22
  1

  0
LINE
  5
51A
330
518
100
AcDbEntity
  8
0
  6
K5LT32768
 62
     5
420
      255
370
    60
100
AcDbLine
 10
1.028519188599603
 20
27.23850038948876
 30
0.0
 11
4.943531710239768
 21
17.73061283692368
 31
0.0
  0
LINE
  5
51B
330
518
100
AcDbEntity
  8
0
  6
K5LT32768
 62
     5
420
      255
370
    60
100
AcDbLine
 10
-11.72803585339716
 20
42.46032579644088
 30
0.0
 11
-11.55942747044901
 21
42.0508482949881
 31
0.0
  0
LINE
  5
51C
330
518
100
AcDbEntity
  8
0
  6
K5LT32768
 62
     5
420
      255
370
    60
100
AcDbLine
 10
-8.53607153162011
 20
34.70841244355688
 30
0.0
 11
-0.6481841878776322
 21
15.55211460874852
 31
0.0
  0
ENDBLK
  5
51E
330
518
100
AcDbEntity
  8
0
100
AcDbBlockEnd
  0
BLOCK
  5
523
330
51F
100
AcDbEntity
  8
0
100
AcDbBlockBegin
  2
U23
 70
     0
 10
0.0
 20
0.0
 30
0.0
  3
U23
  1

  0
LINE
  5
521
330
51F
100
AcDbEntity
  8
0
  6
K5LT32768
 62
     5
420
      255
370
    60
100
AcDbLine
 10
23.23635300681781
 20
26.6948103119139
 30
0.0
 11
26.53607153161283
 21
34.70841244355688
 31
0.0
  0
LINE
  5
522
330
51F
100
AcDbEntity
  8
0
  6
K5LT32768
 62
     5
420
      255
370
    60
100
AcDbLine
 10
29.55942747044173
 20
42.05084829498082
 30
0.0
 11
29.92476365273615
 21
42.93809330914519
 31
0.0
  0
ENDBLK
  5
524
330
51F
100
AcDbEntity
  8
0
100
AcDbBlockEnd
  0
BLOCK
  5
529
330
525
100
AcDbEntity
  8
0
100
AcDbBlockBegin
  2
U24
 70
     0
 10
0.0
 20
0.0
 30
0.0
  3
U24
  1

  0
LINE
  5
527
330
525
100
AcDbEntity
  8
0
  6
K5LT32768
 62
     5
420
      255
370
    60
100
AcDbLine
 10
-14.30908802125487
 20
-2.499999999992724
 30
0.0
 11
-27.60349641799985
 21
-2.5
 31
0.0
  0
LINE
  5
528
330
525
100
AcDbEntity
  8
0
  6
K5LT32768
 62
     5
420
      255
370
    60
100
AcDbLine
 10
-13.06217782649037
 20
2.5
 30
0.0
 11
-35.14975285819673
 21
2.5
 31
0.0
  0
ENDBLK
  5
52A
330
525
100
AcDbEntity
  8
0
100
AcDbBlockEnd
  0
BLOCK
  5
52F
330
52B
100
AcDbEntity
  8
0
100
AcDbBlockBegin
  2
U25
 70
     0
 10
0.0
 20
0.0
 30
0.0
  3
U25
  1

  0
LINE
  5
52D
330
52B
100
AcDbEntity
  8
0
  6
K5LT32768
 62
     5
420
      255
370
    60
100
AcDbLine
 10
119.8715158562991
 20
-0.3347849888741621
 30
0.0
 11
111.8509272283336
 21
4.295904014550615
 31
0.0
  0
LINE
  5
52E
330
52B
100
AcDbEntity
  8
0
  6
K5LT32768
 62
     5
420
      255
370
    60
100
AcDbLine
 10
102.3377603083063
 20
9.788333496675477
 30
0.0
 11
92.23097577464796
 21
15.62348826782545
 31
0.0
  0
ENDBLK
  5
530
330
52B
100
AcDbEntity
  8
0
100
AcDbBlockEnd
  0
BLOCK
  5
535
330
531
100
AcDbEntity
  8
0
100
AcDbBlockBegin
  2
U26
 70
     0
 10
0.0
 20
0.0
 30
0.0
  3
U26
  1

  0
LINE
  5
533
330
531
100
AcDbEntity
  8
0
  6
K5LT32768
 62
     5
420
      255
370
    60
100
AcDbLine
 10
380.8045429685371
 20
3.415063675078272
 30
0.0
 11
380.8045429685371
 21
-3.415063675085548
 31
0.0
  0
LINE
  5
534
330
531
100
AcDbEntity
  8
0
  6
K5LT32768
 62
     5
420
      255
370
    60
100
AcDbLine
 10
376.8045429685444
 20
4.002521088608773
 30
0.0
 11
376.8045429685371
 21
-4.002521088608773
 31
0.0
  0
ENDBLK
  5
536
330
531
100
AcDbEntity
  8
0
100
AcDbBlockEnd
  0
BLOCK
  5
53B
330
537
100
AcDbEntity
  8
0
100
AcDbBlockBegin
  2
U27
 70
     0
 10
0.0
 20
0.0
 30
0.0
  3
U27
  1

  0
LINE
  5
539
330
537
100
AcDbEntity
  8
0
  6
K5LT32768
 62
     5
420
      255
370
    60
100
AcDbLine
 10
355.7469345945065
 20
25.51917389638402
 30
0.0
 11
363.7335168413047
 21
18.91983367691864
 31
0.0
  0
LINE
  5
53A
330
537
100
AcDbEntity
  8
0
  6
K5LT32768
 62
     5
420
      255
370
    60
100
AcDbLine
 10
350.7974578921494
 20
24.4200671005965
 30
0.0
 11
360.0851269608756
 21
16.74563439130725
 31
0.0
  0
ENDBLK
  5
53C
330
537
100
AcDbEntity
  8
0
100
AcDbBlockEnd
  0
BLOCK
  5
541
330
53D
100
AcDbEntity
  8
0
100
AcDbBlockBegin
  2
U28
 70
     0
 10
0.0
 20
0.0
 30
0.0
  3
U28
  1

  0
LINE
  5
53F
330
53D
100
AcDbEntity
  8
0
  6
K5LT32768
 62
     5
420
      255
370
    60
100
AcDbLine
 10
320.938962730761
 20
-6.647623112017754
 30
0.0
 11
310.0857522387596
 21
4.20558737997635
 31
0.0
  0
LINE
  5
540
330
53D
100
AcDbEntity
  8
0
  6
K5LT32768
 62
     5
420
      255
370
    60
100
AcDbLine
 10
323.9073449874923
 20
-2.544937556885998
 30
0.0
 11
316.4523101734885
 21
4.910097257117741
 31
0.0
  0
ENDBLK
  5
542
330
53D
100
AcDbEntity
  8
0
100
AcDbBlockEnd
  0
BLOCK
  5
549
330
543
100
AcDbEntity
  8
0
100
AcDbBlockBegin
  2
U29
 70
     0
 10
0.0
 20
0.0
 30
0.0
  3
U29
  1

  0
ARC
  5
545
330
543
100
AcDbEntity
  8
0
  6
K5LT32768
 62
     5
420
      255
370
    60
100
AcDbCircle
 10
43.90000000000146
 20
0.0
 30
0.0
 40
59.99999999999999
100
AcDbArc
 50
335.0793368146245
 51
344.2829090815889
  0
ARC
  5
546
330
543
100
AcDbEntity
  8
0
  6
K5LT32768
 62
     5
420
      255
370
    60
100
AcDbCircle
 10
43.90000000000146
 20
0.0
 30
0.0
 40
60.00000000000001
100
AcDbArc
 50
354.1737685173501
 51
7.984281481054334
  0
ARC
  5
547
330
543
100
AcDbEntity
  8
0
  6
K5LT32768
 62
     5
420
      255
370
    60
100
AcDbCircle
 10
43.90000000000146
 20
0.0
 30
0.0
 40
65.0
100
AcDbArc
 50
339.2845748058563
 51
344.9485555991914
  0
ARC
  5
548
330
543
100
AcDbEntity
  8
0
  6
K5LT32768
 62
     5
420
      255
370
    60
100
AcDbCircle
 10
43.90000000000146
 20
0.0
 30
0.0
 40
65.00000000000001
100
AcDbArc
 50
353.5081219997456
 51
2.193042428251341
  0
ENDBLK
  5
54A
330
543
100
AcDbEntity
  8
0
100
AcDbBlockEnd
  0
BLOCK
  5
550
330
54B
100
AcDbEntity
  8
0
100
AcDbBlockBegin
  2
U30
 70
     0
 10
0.0
 20
0.0
 30
0.0
  3
U30
  1

  0
ARC
  5
54D
330
54B
100
AcDbEntity
  8
0
  6
K5LT32768
 62
     5
420
      255
370
    60
100
AcDbCircle
 10
32.90000000000146
 20
0.8294340809516143
 30
0.0
 40
117.0
100
AcDbArc
 50
352.3392994504965
 51
357.593151413502
  0
ARC
  5
54E
330
54B
100
AcDbEntity
  8
0
  6
K5LT32768
 62
     5
420
      255
370
    60
100
AcDbCircle
 10
32.90000000000146
 20
0.8294340809516143
 30
0.0
 40
123.0
100
AcDbArc
 50
350.3801453671749
 51
357.7857993885294
  0
ARC
  5
54F
330
54B
100
AcDbEntity
  8
0
  6
K5LT32768
 62
     5
420
      255
370
    60
100
AcDbCircle
 10
32.90000000000146
 20
0.8294340809516143
 30
0.0
 40
123.0
100
AcDbArc
 50
1.863605963795312
 51
1.91021317170912
  0
ENDBLK
  5
551
330
54B
100
AcDbEntity
  8
0
100
AcDbBlockEnd
  0
BLOCK
  5
557
330
552
100
AcDbEntity
  8
0
100
AcDbBlockBegin
  2
U31
 70
     0
 10
0.0
 20
0.0
 30
0.0
  3
U31
  1

  0
ARC
  5
554
330
552
100
AcDbEntity
  8
0
  6
K5LT32768
 62
     5
420
      255
370
    60
100
AcDbCircle
 10
35.90000000000146
 20
0.0
 30
0.0
 40
167.0
100
AcDbArc
 50
354.1435724034396
 51
358.6108753194445
  0
ARC
  5
555
330
552
100
AcDbEntity
  8
0
  6
K5LT32768
 62
     5
420
      255
370
    60
100
AcDbCircle
 10
35.90000000000146
 20
0.0
 30
0.0
 40
173.0
100
AcDbArc
 50
354.7236783180622
 51
358.6902681209906
  0
ARC
  5
556
330
552
100
AcDbEntity
  8
0
  6
K5LT32768
 62
     5
420
      255
370
    60
100
AcDbCircle
 10
35.90000000000146
 20
0.0
 30
0.0
 40
173.0
100
AcDbArc
 50
1.324875971829818
 51
1.348260415020866
  0
ENDBLK
  5
558
330
552
100
AcDbEntity
  8
0
100
AcDbBlockEnd
  0
BLOCK
  5
55E
330
559
100
AcDbEntity
  8
0
100
AcDbBlockBegin
  2
U32
 70
     0
 10
0.0
 20
0.0
 30
0.0
  3
U32
  1

  0
ARC
  5
55B
330
559
100
AcDbEntity
  8
0
  6
K5LT32768
 62
     5
420
      255
370
    60
100
AcDbCircle
 10
43.90000000000146
 20
0.0
 30
0.0
 40
217.0
100
AcDbArc
 50
356.6561530027368
 51
358.9339705050209
  0
ARC
  5
55C
330
559
100
AcDbEntity
  8
0
  6
K5LT32768
 62
     5
420
      255
370
    60
100
AcDbCircle
 10
43.90000000000146
 20
0.0
 30
0.0
 40
223.0
100
AcDbArc
 50
356.9932483598171
 51
358.9813547023707
  0
ARC
  5
55D
330
559
100
AcDbEntity
  8
0
  6
K5LT32768
 62
     5
420
      255
370
    60
100
AcDbCircle
 10
43.90000000000146
 20
0.0
 30
0.0
 40
223.0
100
AcDbArc
 50
1.027782105567411
 51
1.04179885045368
  0
ENDBLK
  5
55F
330
559
100
AcDbEntity
  8
0
100
AcDbBlockEnd
  0
BLOCK
  5
567
330
560
100
AcDbEntity
  8
0
100
AcDbBlockBegin
  2
U33
 70
     0
 10
0.0
 20
0.0
 30
0.0
  3
U33
  1

  0
ARC
  5
562
330
560
100
AcDbEntity
  8
0
  6
K5LT32768
 62
     5
420
      255
370
    60
100
AcDbCircle
 10
43.90000000000146
 20
0.0
 30
0.0
 40
77.00000000000001
100
AcDbArc
 50
342.0926056262061
 51
345.4057850701939
  0
ARC
  5
563
330
560
100
AcDbEntity
  8
0
  6
K5LT32768
 62
     5
420
      255
370
    60
100
AcDbCircle
 10
43.90000000000146
 20
0.0
 30
0.0
 40
77.0
100
AcDbArc
 50
353.050892528739
 51
358.4208538399382
  0
ARC
  5
564
330
560
100
AcDbEntity
  8
0
  6
K5LT32768
 62
     5
420
      255
370
    60
100
AcDbCircle
 10
43.90000000000146
 20
0.0
 30
0.0
 40
77.0
100
AcDbArc
 50
359.3114145470074
 51
359.3230743919171
  0
ARC
  5
565
330
560
100
AcDbEntity
  8
0
  6
K5LT32768
 62
     5
420
      255
370
    60
100
AcDbCircle
 10
43.90000000000146
 20
0.0
 30
0.0
 40
83.0
100
AcDbArc
 50
344.8056271957509
 51
345.8560521160437
  0
ARC
  5
566
330
560
100
AcDbEntity
  8
0
  6
K5LT32768
 62
     5
420
      255
370
    60
100
AcDbCircle
 10
43.90000000000146
 20
0.0
 30
0.0
 40
82.99999999999999
100
AcDbArc
 50
352.6006254829032
 51
357.3027318660634
  0
ENDBLK
  5
568
330
560
100
AcDbEntity
  8
0
100
AcDbBlockEnd
  0
BLOCK
  5
594
330
56B
100
AcDbEntity
  8
0
100
AcDbBlockBegin
  2
U34
 70
     0
 10
0.0
 20
0.0
 30
0.0
  3
U34
  1

  0
LINE
  5
56D
330
56B
100
AcDbEntity
  8
0
  6
K5LT32768
 62
     5
420
      255
370
    60
100
AcDbLine
 10
241.6063383983637
 20
57.5576387471956
 30
0.0
 11
241.6063383983637
 21
52.55763874724653
 31
0.0
  0
ARC
  5
56E
330
56B
100
AcDbEntity
  8
0
  6
K5LT32768
 62
     5
420
      255
370
    60
100
AcDbCircle
 10
288.606338398371
 20
79.5576387472247
 30
0.0
 40
5.999999999999998
100
AcDbArc
 50
318.5903778907696
 51
165.4096221092732
  0
CIRCLE
  5
56F
330
56B
100
AcDbEntity
  8
0
  6
K5LT32768
 62
     5
420
      255
370
    60
100
AcDbCircle
 10
288.606338398371
 20
79.5576387472247
 30
0.0
 40
1.5
  0
LINE
  5
570
330
56B
100
AcDbEntity
  8
0
  6
K5LT32768
 62
     5
420
      255
370
    60
100
AcDbLine
 10
263.5758835044107
 20
66.29303758635069
 30
0.0
 11
280.3484779544306
 21
77.606295392412
 31
0.0
  0
ARC
  5
571
330
56B
100
AcDbEntity
  8
0
  6
K5LT32768
 62
     5
420
      255
370
    60
100
AcDbCircle
 10
276.9933205336129
 20
82.58052082773065
 30
0.0
 40
6.000000000000001
100
AcDbArc
 50
304.0000000000002
 51
345.4096221092796
  0
LINE
  5
572
330
56B
100
AcDbEntity
  8
0
  6
K5LT32768
 62
     5
420
      255
370
    60
100
AcDbLine
 10
275.659251942845
 20
67.20606481916184
 30
0.0
 11
283.7036353752701
 21
72.63206995706423
 31
0.0
  0
ARC
  5
573
330
56B
100
AcDbEntity
  8
0
  6
K5LT32768
 62
     5
420
      255
370
    60
100
AcDbCircle
 10
287.0587927960878
 20
67.65784452174557
 30
0.0
 40
6.000000000000004
100
AcDbArc
 50
82.5903778907664
 51
124.0
  0
LINE
  5
574
330
56B
100
AcDbEntity
  8
0
  6
K5LT32768
 62
     5
420
      255
370
    60
100
AcDbLine
 10
254.606338398371
 20
51.55763874720287
 30
0.0
 11
254.6063383983783
 21
52.48263874724944
 31
0.0
  0
LINE
  5
575
330
56B
100
AcDbEntity
  8
0
  6
K5LT32768
 62
     5
420
      255
370
    60
100
AcDbLine
 10
241.6063383983637
 20
45.5576387472538
 30
0.0
 11
241.6063383983637
 21
50.5576387472538
 31
0.0
  0
CIRCLE
  5
576
330
56B
100
AcDbEntity
  8
0
  6
K5LT32768
 62
     5
420
      255
370
    60
100
AcDbCircle
 10
247.606338398371
 20
45.5576387472538
 30
0.0
 40
1.5
  0
ARC
  5
577
330
56B
100
AcDbEntity
  8
0
  6
K5LT32768
 62
     5
420
      255
370
    60
100
AcDbCircle
 10
247.606338398371
 20
45.5576387472538
 30
0.0
 40
6.0
100
AcDbArc
 50
180.0
 51
221.4096221092305
  0
LINE
  5
578
330
56B
100
AcDbEntity
  8
0
  6
K5LT32768
 62
     5
420
      255
370
    60
100
AcDbLine
 10
254.606338398371
 20
51.55763874724653
 30
0.0
 11
254.606338398371
 21
50.63263874724362
 31
0.0
  0
LINE
  5
579
330
56B
100
AcDbEntity
  8
0
  6
K5LT32768
 62
     5
420
      255
370
    60
100
AcDbLine
 10
241.6063383983637
 20
50.5576387472538
 30
0.0
 11
241.6063383983637
 21
48.57918610628258
 31
0.0
  0
LINE
  5
57A
330
56B
100
AcDbEntity
  8
0
  6
K5LT32768
 62
     5
420
      255
370
    60
100
AcDbLine
 10
254.6063383983637
 20
52.48263874724944
 30
0.0
 11
254.606338398371
 21
50.63263874724362
 31
0.0
  0
LINE
  5
57B
330
56B
100
AcDbEntity
  8
0
  6
K5LT32768
 62
     5
420
      255
370
    60
100
AcDbLine
 10
254.606338398371
 20
51.55763874720287
 30
0.0
 11
254.6063383983783
 21
52.50763874724362
 31
0.0
  0
LINE
  5
57C
330
56B
100
AcDbEntity
  8
0
  6
K5LT32768
 62
     5
420
      255
370
    60
100
AcDbLine
 10
254.606338398371
 20
51.55763874724653
 30
0.0
 11
254.606338398371
 21
50.60763874724944
 31
0.0
  0
LINE
  5
57D
330
56B
100
AcDbEntity
  8
0
  6
K5LT32768
 62
     5
420
      255
370
    60
100
AcDbLine
 10
254.606338398371
 20
52.55763874724653
 30
0.0
 11
254.606338398371
 21
50.55763874724653
 31
0.0
  0
LINE
  5
57E
330
56B
100
AcDbEntity
  8
0
  6
K5LT32768
 62
     5
420
      255
370
    60
100
AcDbLine
 10
254.606338398371
 20
50.55763874724653
 30
0.0
 11
241.6063383983637
 21
50.55763874724653
 31
0.0
  0
LINE
  5
57F
330
56B
100
AcDbEntity
  8
0
  6
K5LT32768
 62
     5
420
      255
370
    60
100
AcDbLine
 10
254.606338398371
 20
52.55763874724653
 30
0.0
 11
241.6063383983637
 21
52.55763874724653
 31
0.0
  0
ARC
  5
580
330
56B
100
AcDbEntity
  8
0
  6
K5LT32768
 62
     5
420
      255
370
    60
100
AcDbCircle
 10
247.606338398371
 20
57.55763874723925
 30
0.0
 40
6.0
100
AcDbArc
 50
90.0
 51
180.0
  0
CIRCLE
  5
581
330
56B
100
AcDbEntity
  8
0
  6
K5LT32768
 62
     5
420
      255
370
    60
100
AcDbCircle
 10
247.606338398371
 20
57.55763874723925
 30
0.0
 40
1.5
  0
LINE
  5
582
330
56B
100
AcDbEntity
  8
0
  6
K5LT32768
 62
     5
420
      255
370
    60
100
AcDbLine
 10
247.606338398371
 20
63.55763874723925
 30
0.0
 11
254.628797048892
 21
63.55763874723925
 31
0.0
  0
ARC
  5
583
330
56B
100
AcDbEntity
  8
0
  6
K5LT32768
 62
     5
420
      255
370
    60
100
AcDbCircle
 10
254.628797048892
 20
79.55763874723925
 30
0.0
 40
15.99999999999999
100
AcDbArc
 50
270.0
 51
303.999999999945
  0
ARC
  5
584
330
56B
100
AcDbEntity
  8
0
  6
K5LT32768
 62
     5
420
      255
370
    60
100
AcDbCircle
 10
288.606338398371
 20
23.55763874726836
 30
0.0
 40
6.0
100
AcDbArc
 50
194.5903778907268
 51
41.40962210923048
  0
CIRCLE
  5
585
330
56B
100
AcDbEntity
  8
0
  6
K5LT32768
 62
     5
420
      255
370
    60
100
AcDbCircle
 10
288.606338398371
 20
23.55763874726836
 30
0.0
 40
1.5
  0
LINE
  5
586
330
56B
100
AcDbEntity
  8
0
  6
K5LT32768
 62
     5
420
      255
370
    60
100
AcDbLine
 10
263.5758835044107
 20
36.82223990814236
 30
0.0
 11
280.3484779544306
 21
25.50898210208106
 31
0.0
  0
ARC
  5
587
330
56B
100
AcDbEntity
  8
0
  6
K5LT32768
 62
     5
420
      255
370
    60
100
AcDbCircle
 10
276.9933205336129
 20
20.53475666676241
 30
0.0
 40
6.000000000000004
100
AcDbArc
 50
14.59037789072041
 51
56.00000000000001
  0
LINE
  5
588
330
56B
100
AcDbEntity
  8
0
  6
K5LT32768
 62
     5
420
      255
370
    60
100
AcDbLine
 10
275.659251942845
 20
35.90921267533122
 30
0.0
 11
283.7036353752701
 21
30.48320753742883
 31
0.0
  0
ARC
  5
589
330
56B
100
AcDbEntity
  8
0
  6
K5LT32768
 62
     5
420
      255
370
    60
100
AcDbCircle
 10
287.0587927960878
 20
35.45743297274748
 30
0.0
 40
6.000000000000004
100
AcDbArc
 50
236.0
 51
277.4096221092336
  0
ARC
  5
58A
330
56B
100
AcDbEntity
  8
0
  6
K5LT32768
 62
     5
420
      255
370
    60
100
AcDbCircle
 10
247.606338398371
 20
45.5576387472538
 30
0.0
 40
6.0
100
AcDbArc
 50
180.0
 51
270.0
  0
CIRCLE
  5
58B
330
56B
100
AcDbEntity
  8
0
  6
K5LT32768
 62
     5
420
      255
370
    60
100
AcDbCircle
 10
247.606338398371
 20
45.5576387472538
 30
0.0
 40
1.5
  0
LINE
  5
58C
330
56B
100
AcDbEntity
  8
0
  6
K5LT32768
 62
     5
420
      255
370
    60
100
AcDbLine
 10
247.606338398371
 20
39.5576387472538
 30
0.0
 11
254.628797048892
 21
39.5576387472538
 31
0.0
  0
ARC
  5
58D
330
56B
100
AcDbEntity
  8
0
  6
K5LT32768
 62
     5
420
      255
370
    60
100
AcDbCircle
 10
254.628797048892
 20
23.5576387472538
 30
0.0
 40
16.0
100
AcDbArc
 50
56.00000000005502
 51
90.0
  0
LINE
  5
58E
330
56B
100
AcDbEntity
  8
0
  6
K5LT32768
 62
     5
420
      255
370
    60
100
AcDbLine
 10
268.6063383983637
 20
51.55763874726836
 30
0.0
 11
268.6063383983565
 21
53.94146365827328
 31
0.0
  0
LINE
  5
58F
330
56B
100
AcDbEntity
  8
0
  6
K5LT32768
 62
     5
420
      255
370
    60
100
AcDbLine
 10
268.6063383983637
 20
51.55763874726836
 30
0.0
 11
268.6063383983637
 21
49.17381383621978
 31
0.0
  0
ARC
  5
590
330
56B
100
AcDbEntity
  8
0
  6
K5LT32768
 62
     5
420
      255
370
    60
100
AcDbCircle
 10
284.6063383983637
 20
53.94146365827328
 30
0.0
 40
16.0
100
AcDbArc
 50
123.999999999945
 51
180.0
  0
ARC
  5
591
330
56B
100
AcDbEntity
  8
0
  6
K5LT32768
 62
     5
420
      255
370
    60
100
AcDbCircle
 10
284.6063383983637
 20
49.17381383621978
 30
0.0
 40
16.0
100
AcDbArc
 50
180.0
 51
236.000000000055
  0
ARC
  5
592
330
56B
100
AcDbEntity
  8
0
  6
K5LT32768
 62
     5
420
      255
370
    60
100
AcDbCircle
 10
288.606338398371
 20
23.55763874726836
 30
0.0
 40
5.999999999997008
100
AcDbArc
 50
194.5903778907268
 51
97.40962210923519
  0
ARC
  5
593
330
56B
100
AcDbEntity
  8
0
  6
K5LT32768
 62
     5
420
      255
370
    60
100
AcDbCircle
 10
288.606338398371
 20
79.5576387472247
 30
0.0
 40
5.999999999997008
100
AcDbArc
 50
262.5903778907648
 51
165.4096221092732
  0
ENDBLK
  5
595
330
56B
100
AcDbEntity
  8
0
100
AcDbBlockEnd
  0
ENDSEC
  0
SECTION
  2
ENTITIES
  0
ARC
  5
71
330
1F
100
AcDbEntity
  8
0
  6
K5LT_BASIC
 62
     5
420
      255
370
    60
100
AcDbCircle
 10
231.3385115219353
 20
13.05763874726836
 30
0.0
 40
4.00000000000001
100
AcDbArc
 50
238.2116693829916
 51
121.7883306170082
  0
ARC
  5
72
330
1F
100
AcDbEntity
  8
0
  6
K5LT_BASIC
 62
     5
420
      255
370
    60
100
AcDbCircle
 10
226.0706846455068
 20
21.55763874726836
 30
0.0
 40
6.0
100
AcDbArc
 50
270.0
 51
301.7883306170806
  0
LINE
  5
73
330
1F
100
AcDbEntity
  8
0
  6
K5LT_BASIC
 62
     5
420
      255
370
    60
100
AcDbLine
 10
226.0706846455068
 20
15.55763874726836
 30
0.0
 11
186.6063383983637
 21
15.55763874726836
 31
0.0
  0
ARC
  5
74
330
1F
100
AcDbEntity
  8
0
  6
K5LT_BASIC
 62
     5
420
      255
370
    60
100
AcDbCircle
 10
186.6063383983637
 20
21.55763874726836
 30
0.0
 40
5.999999999999984
100
AcDbArc
 50
238.2116693829362
 51
270.0000000000192
  0
ARC
  5
75
330
1F
100
AcDbEntity
  8
0
  6
K5LT_BASIC
 62
     5
420
      255
370
    60
100
AcDbCircle
 10
181.3385115219353
 20
13.05763874726836
 30
0.0
 40
4.000000000000011
100
AcDbArc
 50
58.21166938298345
 51
301.7883306170252
  0
ARC
  5
76
330
1F
100
AcDbEntity
  8
0
  6
K5LT_BASIC
 62
     5
420
      255
370
    60
100
AcDbCircle
 10
186.6063383983637
 20
4.557638747268356
 30
0.0
 40
6.0
100
AcDbArc
 50
90.0
 51
121.7883306170806
  0
LINE
  5
77
330
1F
100
AcDbEntity
  8
0
  6
K5LT_BASIC
 62
     5
420
      255
370
    60
100
AcDbLine
 10
186.6063383983637
 20
10.55763874726836
 30
0.0
 11
226.0706846455068
 21
10.55763874726836
 31
0.0
  0
ARC
  5
78
330
1F
100
AcDbEntity
  8
0
  6
K5LT_BASIC
 62
     5
420
      255
370
    60
100
AcDbCircle
 10
226.0706846455068
 20
4.557638747268356
 30
0.0
 40
5.999999999999992
100
AcDbArc
 50
58.21166938291928
 51
90.0
  0
CIRCLE
  5
79
330
1F
100
AcDbEntity
  8
0
  6
K5LT_BASIC
 62
     5
420
      255
370
    60
100
AcDbCircle
 10
231.3385115219353
 20
13.05763874726836
 30
0.0
 40
1.5
  0
CIRCLE
  5
7A
330
1F
100
AcDbEntity
  8
0
  6
K5LT_BASIC
 62
     5
420
      255
370
    60
100
AcDbCircle
 10
181.3385115219353
 20
13.05763874726836
 30
0.0
 40
1.5
  0
LINE
  5
7B
330
1F
100
AcDbEntity
  8
0
  6
K5LT_BASIC
 62
     5
420
      255
370
    60
100
AcDbLine
 10
69.6313383983652
 20
-48.95433983633847
 30
0.0
 11
69.6313383983652
 21
-48.24236125271999
 31
0.0
  0
LINE
  5
7C
330
1F
100
AcDbEntity
  8
0
  6
K5LT_BASIC
 62
     5
420
      255
370
    60
100
AcDbLine
 10
69.6313383983652
 20
-48.24236125271999
 30
0.0
 11
47.98133839839285
 21
-48.24236125271999
 31
0.0
  0
LINE
  5
7D
330
1F
100
AcDbEntity
  8
0
  6
K5LT_BASIC
 62
     5
420
      255
370
    60
100
AcDbLine
 10
47.98133839839285
 20
-48.24236125271999
 30
0.0
 11
47.98133839838557
 21
-48.95433983630937
 31
0.0
  0
ARC
  5
7E
330
1F
100
AcDbEntity
  8
0
  6
K5LT_BASIC
 62
     5
420
      255
370
    60
100
AcDbCircle
 10
53.98133839838557
 20
-48.95433983632392
 30
0.0
 40
6.0
100
AcDbArc
 50
180.0
 51
270.0000000004164
  0
LINE
  5
7F
330
1F
100
AcDbEntity
  8
0
  6
K5LT_BASIC
 62
     5
420
      255
370
    60
100
AcDbLine
 10
53.98133839841468
 20
-54.95433983632392
 30
0.0
 11
63.6313383983652
 21
-54.95433983632392
 31
0.0
  0
ARC
  5
80
330
1F
100
AcDbEntity
  8
0
  6
K5LT_BASIC
 62
     5
420
      255
370
    60
100
AcDbCircle
 10
63.6313383983652
 20
-48.95433983632392
 30
0.0
 40
6.0
100
AcDbArc
 50
270.0
 51
0.0
  0
CIRCLE
  5
81
330
1F
100
AcDbEntity
  8
0
  6
K5LT_BASIC
 62
     5
420
      255
370
    60
100
AcDbCircle
 10
51.90633839838121
 20
-51.04236125272291
 30
0.0
 40
1.0
  0
CIRCLE
  5
82
330
1F
100
AcDbEntity
  8
0
  6
K5LT_BASIC
 62
     5
420
      255
370
    60
100
AcDbCircle
 10
65.70633839838412
 20
-51.04236125272291
 30
0.0
 40
1.0
  0
LINE
  5
83
330
1F
100
AcDbEntity
  8
0
  6
K5LT_BASIC
 62
     5
420
      255
370
    60
100
AcDbLine
 10
322.8489790854146
 20
79.5576387472247
 30
0.0
 11
337.6063383983201
 21
79.5576387472247
 31
0.0
  0
LINE
  5
84
330
1F
100
AcDbEntity
  8
0
  6
K5LT_BASIC
 62
     5
420
      255
370
    60
100
AcDbLine
 10
337.6063383983201
 20
79.5576387472247
 30
0.0
 11
352.3636977112255
 21
79.5576387472247
 31
0.0
  0
ARC
  5
85
330
1F
100
AcDbEntity
  8
0
  6
K5LT_BASIC
 62
     5
420
      255
370
    60
100
AcDbCircle
 10
352.3636977112255
 20
76.5576387472247
 30
0.0
 40
3.000000000000002
100
AcDbArc
 50
44.99999999965873
 51
90.00000000000217
  0
LINE
  5
86
330
1F
100
AcDbEntity
  8
0
  6
K5LT_BASIC
 62
     5
420
      255
370
    60
100
AcDbLine
 10
354.4850180547946
 20
78.67895909077197
 30
0.0
 11
357.1418723042443
 21
76.02210484130046
 31
0.0
  0
ARC
  5
87
330
1F
100
AcDbEntity
  8
0
  6
K5LT_BASIC
 62
     5
420
      255
370
    60
100
AcDbCircle
 10
359.2631926478134
 20
78.14342518484773
 30
0.0
 40
3.000000000000007
100
AcDbArc
 50
224.9999999996558
 51
315.0000000002739
  0
LINE
  5
88
330
1F
100
AcDbEntity
  8
0
  6
K5LT_BASIC
 62
     5
420
      255
370
    60
100
AcDbLine
 10
361.3845129913825
 20
76.02210484130046
 30
0.0
 11
362.1418723042589
 21
76.7794641541841
 31
0.0
  0
ARC
  5
89
330
1F
100
AcDbEntity
  8
0
  6
K5LT_BASIC
 62
     5
420
      255
370
    60
100
AcDbCircle
 10
360.0205519606898
 20
78.90078449773137
 30
0.0
 40
2.999999999999994
100
AcDbArc
 50
315.0000000002754
 51
44.99999999999944
  0
LINE
  5
8A
330
1F
100
AcDbEntity
  8
0
  6
K5LT_BASIC
 62
     5
420
      255
370
    60
100
AcDbLine
 10
362.1418723042516
 20
81.02210484129319
 30
0.0
 11
359.485018054751
 21
83.67895909078652
 31
0.0
  0
ARC
  5
8B
330
1F
100
AcDbEntity
  8
0
  6
K5LT_BASIC
 62
     5
420
      255
370
    60
100
AcDbCircle
 10
357.3636977111964
 20
81.5576387472247
 30
0.0
 40
3.000000000000001
100
AcDbArc
 50
44.99999999999957
 51
90.0
  0
LINE
  5
8C
330
1F
100
AcDbEntity
  8
0
  6
K5LT_BASIC
 62
     5
420
      255
370
    60
100
AcDbLine
 10
357.3636977111964
 20
84.5576387472247
 30
0.0
 11
337.6063383983201
 21
84.5576387472247
 31
0.0
  0
LINE
  5
8D
330
1F
100
AcDbEntity
  8
0
  6
K5LT_BASIC
 62
     5
420
      255
370
    60
100
AcDbLine
 10
337.6063383983201
 20
84.5576387472247
 30
0.0
 11
317.8489790854437
 21
84.5576387472247
 31
0.0
  0
ARC
  5
8E
330
1F
100
AcDbEntity
  8
0
  6
K5LT_BASIC
 62
     5
420
      255
370
    60
100
AcDbCircle
 10
317.8489790854437
 20
81.5576387472247
 30
0.0
 40
3.0
100
AcDbArc
 50
90.0
 51
135.0000000000004
  0
LINE
  5
8F
330
1F
100
AcDbEntity
  8
0
  6
K5LT_BASIC
 62
     5
420
      255
370
    60
100
AcDbLine
 10
315.7276587418892
 20
83.67895909078652
 30
0.0
 11
313.0708044923886
 21
81.02210484129319
 31
0.0
  0
ARC
  5
90
330
1F
100
AcDbEntity
  8
0
  6
K5LT_BASIC
 62
     5
420
      255
370
    60
100
AcDbCircle
 10
315.1921248359504
 20
78.90078449773137
 30
0.0
 40
2.999999999999992
100
AcDbArc
 50
135.0000000000006
 51
224.9999999997246
  0
LINE
  5
91
330
1F
100
AcDbEntity
  8
0
  6
K5LT_BASIC
 62
     5
420
      255
370
    60
100
AcDbLine
 10
313.0708044923813
 20
76.7794641541841
 30
0.0
 11
313.8281638052576
 21
76.02210484130046
 31
0.0
  0
ARC
  5
92
330
1F
100
AcDbEntity
  8
0
  6
K5LT_BASIC
 62
     5
420
      255
370
    60
100
AcDbCircle
 10
315.9494841488267
 20
78.14342518484773
 30
0.0
 40
3.000000000000002
100
AcDbArc
 50
224.9999999997247
 51
315.0000000003444
  0
LINE
  5
93
330
1F
100
AcDbEntity
  8
0
  6
K5LT_BASIC
 62
     5
420
      255
370
    60
100
AcDbLine
 10
318.0708044923958
 20
76.02210484130046
 30
0.0
 11
320.7276587418455
 21
78.67895909077197
 31
0.0
  0
ARC
  5
94
330
1F
100
AcDbEntity
  8
0
  6
K5LT_BASIC
 62
     5
420
      255
370
    60
100
AcDbCircle
 10
322.8489790854146
 20
76.5576387472247
 30
0.0
 40
3.0
100
AcDbArc
 50
89.99999999999784
 51
135.0000000003413
  0
CIRCLE
  5
95
330
1F
100
AcDbEntity
  8
0
  6
K5LT_BASIC
 62
     5
420
      255
370
    60
100
AcDbCircle
 10
358.6063383983201
 20
79.5576387472247
 30
0.0
 40
1.55
  0
CIRCLE
  5
96
330
1F
100
AcDbEntity
  8
0
  6
K5LT_BASIC
 62
     5
420
      255
370
    60
100
AcDbCircle
 10
316.6063383983201
 20
79.5576387472247
 30
0.0
 40
1.55
  0
LINE
  5
97
330
1F
100
AcDbEntity
  8
0
  6
K5LT_BASIC
 62
     5
420
      255
370
    60
100
AcDbLine
 10
322.8489790854146
 20
64.5576387472247
 30
0.0
 11
337.6063383983201
 21
64.5576387472247
 31
0.0
  0
LINE
  5
98
330
1F
100
AcDbEntity
  8
0
  6
K5LT_BASIC
 62
     5
420
      255
370
    60
100
AcDbLine
 10
337.6063383983201
 20
64.5576387472247
 30
0.0
 11
352.3636977112255
 21
64.5576387472247
 31
0.0
  0
ARC
  5
99
330
1F
100
AcDbEntity
  8
0
  6
K5LT_BASIC
 62
     5
420
      255
370
    60
100
AcDbCircle
 10
352.3636977112255
 20
61.5576387472247
 30
0.0
 40
3.000000000000002
100
AcDbArc
 50
44.99999999965873
 51
90.00000000000217
  0
LINE
  5
9A
330
1F
100
AcDbEntity
  8
0
  6
K5LT_BASIC
 62
     5
420
      255
370
    60
100
AcDbLine
 10
354.4850180547946
 20
63.67895909077197
 30
0.0
 11
357.1418723042443
 21
61.02210484130046
 31
0.0
  0
ARC
  5
9B
330
1F
100
AcDbEntity
  8
0
  6
K5LT_BASIC
 62
     5
420
      255
370
    60
100
AcDbCircle
 10
359.2631926478134
 20
63.14342518484773
 30
0.0
 40
3.000000000000007
100
AcDbArc
 50
224.9999999996558
 51
315.0000000002739
  0
LINE
  5
9C
330
1F
100
AcDbEntity
  8
0
  6
K5LT_BASIC
 62
     5
420
      255
370
    60
100
AcDbLine
 10
361.3845129913825
 20
61.02210484130046
 30
0.0
 11
362.1418723042589
 21
61.7794641541841
 31
0.0
  0
ARC
  5
9D
330
1F
100
AcDbEntity
  8
0
  6
K5LT_BASIC
 62
     5
420
      255
370
    60
100
AcDbCircle
 10
360.0205519606898
 20
63.90078449773137
 30
0.0
 40
2.999999999999994
100
AcDbArc
 50
315.0000000002754
 51
44.99999999999944
  0
LINE
  5
9E
330
1F
100
AcDbEntity
  8
0
  6
K5LT_BASIC
 62
     5
420
      255
370
    60
100
AcDbLine
 10
362.1418723042516
 20
66.02210484129319
 30
0.0
 11
359.485018054751
 21
68.67895909078652
 31
0.0
  0
ARC
  5
9F
330
1F
100
AcDbEntity
  8
0
  6
K5LT_BASIC
 62
     5
420
      255
370
    60
100
AcDbCircle
 10
357.3636977111964
 20
66.5576387472247
 30
0.0
 40
3.000000000000001
100
AcDbArc
 50
44.99999999999957
 51
90.0
  0
LINE
  5
A0
330
1F
100
AcDbEntity
  8
0
  6
K5LT_BASIC
 62
     5
420
      255
370
    60
100
AcDbLine
 10
357.3636977111964
 20
69.5576387472247
 30
0.0
 11
337.6063383983201
 21
69.5576387472247
 31
0.0
  0
LINE
  5
A1
330
1F
100
AcDbEntity
  8
0
  6
K5LT_BASIC
 62
     5
420
      255
370
    60
100
AcDbLine
 10
337.6063383983201
 20
69.5576387472247
 30
0.0
 11
317.8489790854437
 21
69.5576387472247
 31
0.0
  0
ARC
  5
A2
330
1F
100
AcDbEntity
  8
0
  6
K5LT_BASIC
 62
     5
420
      255
370
    60
100
AcDbCircle
 10
317.8489790854437
 20
66.5576387472247
 30
0.0
 40
3.0
100
AcDbArc
 50
90.0
 51
135.0000000000004
  0
LINE
  5
A3
330
1F
100
AcDbEntity
  8
0
  6
K5LT_BASIC
 62
     5
420
      255
370
    60
100
AcDbLine
 10
315.7276587418892
 20
68.67895909078652
 30
0.0
 11
313.0708044923886
 21
66.02210484129319
 31
0.0
  0
ARC
  5
A4
330
1F
100
AcDbEntity
  8
0
  6
K5LT_BASIC
 62
     5
420
      255
370
    60
100
AcDbCircle
 10
315.1921248359504
 20
63.90078449773137
 30
0.0
 40
2.999999999999992
100
AcDbArc
 50
135.0000000000006
 51
224.9999999997246
  0
LINE
  5
A5
330
1F
100
AcDbEntity
  8
0
  6
K5LT_BASIC
 62
     5
420
      255
370
    60
100
AcDbLine
 10
313.0708044923813
 20
61.7794641541841
 30
0.0
 11
313.8281638052576
 21
61.02210484130046
 31
0.0
  0
ARC
  5
A6
330
1F
100
AcDbEntity
  8
0
  6
K5LT_BASIC
 62
     5
420
      255
370
    60
100
AcDbCircle
 10
315.9494841488267
 20
63.14342518484773
 30
0.0
 40
3.000000000000002
100
AcDbArc
 50
224.9999999997247
 51
315.0000000003444
  0
LINE
  5
A7
330
1F
100
AcDbEntity
  8
0
  6
K5LT_BASIC
 62
     5
420
      255
370
    60
100
AcDbLine
 10
318.0708044923958
 20
61.02210484130046
 30
0.0
 11
320.7276587418455
 21
63.67895909077197
 31
0.0
  0
ARC
  5
A8
330
1F
100
AcDbEntity
  8
0
  6
K5LT_BASIC
 62
     5
420
      255
370
    60
100
AcDbCircle
 10
322.8489790854146
 20
61.5576387472247
 30
0.0
 40
3.0
100
AcDbArc
 50
89.99999999999784
 51
135.0000000003413
  0
CIRCLE
  5
A9
330
1F
100
AcDbEntity
  8
0
  6
K5LT_BASIC
 62
     5
420
      255
370
    60
100
AcDbCircle
 10
358.6063383983201
 20
64.5576387472247
 30
0.0
 40
1.55
  0
CIRCLE
  5
AA
330
1F
100
AcDbEntity
  8
0
  6
K5LT_BASIC
 62
     5
420
      255
370
    60
100
AcDbCircle
 10
316.6063383983201
 20
64.5576387472247
 30
0.0
 40
1.55
  0
LINE
  5
AB
330
1F
100
AcDbEntity
  8
0
  6
K5LT_BASIC
 62
     5
420
      255
370
    60
100
AcDbLine
 10
129.9999999999927
 20
41.16397714563939
 30
0.0
 11
127.9999999999927
 21
41.16397714563939
 31
0.0
  0
LINE
  5
AC
330
1F
100
AcDbEntity
  8
0
  6
K5LT_BASIC
 62
     5
420
      255
370
    60
100
AcDbLine
 10
127.9999999999927
 20
41.16397714563939
 30
0.0
 11
127.9999999999927
 21
54.16397714564666
 31
0.0
  0
LINE
  5
AD
330
1F
100
AcDbEntity
  8
0
  6
K5LT_BASIC
 62
     5
420
      255
370
    60
100
AcDbLine
 10
127.9999999999927
 20
54.16397714564666
 30
0.0
 11
126.0215473590433
 21
54.16397714564666
 31
0.0
  0
ARC
  5
AE
330
1F
100
AcDbEntity
  8
0
  6
K5LT_BASIC
 62
     5
420
      255
370
    60
100
AcDbCircle
 10
126.0215473590433
 20
52.16397714564666
 30
0.0
 40
2.0
100
AcDbArc
 50
90.00000000003827
 51
144.1134983761268
  0
LINE
  5
AF
330
1F
100
AcDbEntity
  8
0
  6
K5LT_BASIC
 62
     5
420
      255
370
    60
100
AcDbLine
 10
124.4011878348902
 20
53.33634014936253
 30
0.0
 11
118.138921427555
 21
44.68106615677245
 31
0.0
  0
ARC
  5
B0
330
1F
100
AcDbEntity
  8
0
  6
K5LT_BASIC
 62
     5
420
      255
370
    60
100
AcDbCircle
 10
123.0000000000218
 20
41.16397714564666
 30
0.0
 40
5.999999999992717
100
AcDbArc
 50
144.1134983762727
 51
215.8865016237973
  0
LINE
  5
B1
330
1F
100
AcDbEntity
  8
0
  6
K5LT_BASIC
 62
     5
420
      255
370
    60
100
AcDbLine
 10
118.1389214275623
 20
37.64688813450632
 30
0.0
 11
124.4011878348756
 21
28.99161414192351
 31
0.0
  0
ARC
  5
B2
330
1F
100
AcDbEntity
  8
0
  6
K5LT_BASIC
 62
     5
420
      255
370
    60
100
AcDbCircle
 10
126.0215473590288
 20
30.16397714563939
 30
0.0
 40
1.999999999999996
100
AcDbArc
 50
215.8865016239839
 51
270.0000000003599
  0
LINE
  5
B3
330
1F
100
AcDbEntity
  8
0
  6
K5LT_BASIC
 62
     5
420
      255
370
    60
100
AcDbLine
 10
126.0215473590433
 20
28.16397714563939
 30
0.0
 11
129.0000000000073
 21
28.16397714563939
 31
0.0
  0
LINE
  5
B4
330
1F
100
AcDbEntity
  8
0
  6
K5LT_BASIC
 62
     5
420
      255
370
    60
100
AcDbLine
 10
129.0000000000073
 20
28.16397714563939
 30
0.0
 11
131.9784526409785
 21
28.16397714563211
 31
0.0
  0
ARC
  5
B5
330
1F
100
AcDbEntity
  8
0
  6
K5LT_BASIC
 62
     5
420
      255
370
    60
100
AcDbCircle
 10
131.9784526409712
 20
30.16397714563211
 30
0.0
 40
2.0
100
AcDbArc
 50
270.0000000001889
 51
324.113498376384
  0
LINE
  5
B6
330
1F
100
AcDbEntity
  8
0
  6
K5LT_BASIC
 62
     5
420
      255
370
    60
100
AcDbLine
 10
133.5988121651317
 20
28.99161414192351
 30
0.0
 11
139.8610785724595
 21
37.64688813450632
 31
0.0
  0
ARC
  5
B7
330
1F
100
AcDbEntity
  8
0
  6
K5LT_BASIC
 62
     5
420
      255
370
    60
100
AcDbCircle
 10
134.9999999999927
 20
41.16397714563211
 30
0.0
 40
5.99999999999273
100
AcDbArc
 50
324.1134983762735
 51
35.886501623798
  0
LINE
  5
B8
330
1F
100
AcDbEntity
  8
0
  6
K5LT_BASIC
 62
     5
420
      255
370
    60
100
AcDbLine
 10
139.8610785724522
 20
44.68106615677245
 30
0.0
 11
133.5988121651244
 21
53.33634014936253
 31
0.0
  0
ARC
  5
B9
330
1F
100
AcDbEntity
  8
0
  6
K5LT_BASIC
 62
     5
420
      255
370
    60
100
AcDbCircle
 10
131.9784526409712
 20
52.16397714564666
 30
0.0
 40
2.000000000000008
100
AcDbArc
 50
35.88650162377467
 51
90.0
  0
LINE
  5
BA
330
1F
100
AcDbEntity
  8
0
  6
K5LT_BASIC
 62
     5
420
      255
370
    60
100
AcDbLine
 10
131.9784526409712
 20
54.16397714564666
 30
0.0
 11
129.9999999999927
 21
54.16397714564666
 31
0.0
  0
LINE
  5
BB
330
1F
100
AcDbEntity
  8
0
  6
K5LT_BASIC
 62
     5
420
      255
370
    60
100
AcDbLine
 10
129.9999999999927
 20
54.16397714564666
 30
0.0
 11
129.9999999999927
 21
41.16397714563939
 31
0.0
  0
CIRCLE
  5
BC
330
1F
100
AcDbEntity
  8
0
  6
K5LT_BASIC
 62
     5
420
      255
370
    60
100
AcDbCircle
 10
134.9999999999927
 20
41.16397714563939
 30
0.0
 40
1.5
  0
CIRCLE
  5
BD
330
1F
100
AcDbEntity
  8
0
  6
K5LT_BASIC
 62
     5
420
      255
370
    60
100
AcDbCircle
 10
123.0000000000218
 20
41.16397714563939
 30
0.0
 40
1.5
  0
LINE
  5
BF
330
1F
100
AcDbEntity
  8
0
  6
K5LT32768
 62
     5
420
      255
370
    60
100
AcDbLine
 10
-60.84381883060269
 20
-54.09236125274765
 30
0.0
 11
-60.84381883060269
 21
-54.8043398363443
 31
0.0
  0
ARC
  5
C0
330
1F
100
AcDbEntity
  8
0
  6
K5LT32768
 62
     5
420
      255
370
    60
100
AcDbCircle
 10
-54.84381883060269
 20
-54.80433983635157
 30
0.0
 40
6.0
100
AcDbArc
 50
179.9999999999305
 51
270.0
  0
LINE
  5
C1
330
1F
100
AcDbEntity
  8
0
  6
K5LT32768
 62
     5
420
      255
370
    60
100
AcDbLine
 10
-54.84381883060269
 20
-60.80433983635157
 30
0.0
 11
-54.0188188306056
 21
-60.80433983635157
 31
0.0
  0
LINE
  5
C2
330
1F
100
AcDbEntity
  8
0
  6
K5LT32768
 62
     5
420
      255
370
    60
100
AcDbLine
 10
-54.0188188306056
 20
-60.80433983635157
 30
0.0
 11
-54.01881883061287
 21
-48.59236125274765
 31
0.0
  0
LINE
  5
C3
330
1F
100
AcDbEntity
  8
0
  6
K5LT32768
 62
     5
420
      255
370
    60
100
AcDbLine
 10
-54.01881883061287
 20
-48.59236125274765
 30
0.0
 11
-52.01881883061287
 21
-48.59236125274765
 31
0.0
  0
LINE
  5
C4
330
1F
100
AcDbEntity
  8
0
  6
K5LT32768
 62
     5
420
      255
370
    60
100
AcDbLine
 10
-52.01881883061287
 20
-48.59236125274765
 30
0.0
 11
-52.01881883061287
 21
-60.80433983635157
 31
0.0
  0
LINE
  5
C5
330
1F
100
AcDbEntity
  8
0
  6
K5LT32768
 62
     5
420
      255
370
    60
100
AcDbLine
 10
-52.01881883061287
 20
-60.80433983635157
 30
0.0
 11
-48.0188188306056
 21
-60.80433983635157
 31
0.0
  0
LINE
  5
C6
330
1F
100
AcDbEntity
  8
0
  6
K5LT32768
 62
     5
420
      255
370
    60
100
AcDbLine
 10
-48.0188188306056
 20
-60.80433983635157
 30
0.0
 11
-48.01881883061287
 21
-48.59236125274765
 31
0.0
  0
LINE
  5
C7
330
1F
100
AcDbEntity
  8
0
  6
K5LT32768
 62
     5
420
      255
370
    60
100
AcDbLine
 10
-48.01881883061287
 20
-48.59236125274765
 30
0.0
 11
-46.01881883061287
 21
-48.59236125274765
 31
0.0
  0
LINE
  5
C8
330
1F
100
AcDbEntity
  8
0
  6
K5LT32768
 62
     5
420
      255
370
    60
100
AcDbLine
 10
-46.01881883061287
 20
-48.59236125274765
 30
0.0
 11
-46.01881883061287
 21
-60.80433983635157
 31
0.0
  0
LINE
  5
C9
330
1F
100
AcDbEntity
  8
0
  6
K5LT32768
 62
     5
420
      255
370
    60
100
AcDbLine
 10
-46.01881883061287
 20
-60.80433983635157
 30
0.0
 11
-45.19381883063033
 21
-60.80433983635157
 31
0.0
  0
ARC
  5
CA
330
1F
100
AcDbEntity
  8
0
  6
K5LT32768
 62
     5
420
      255
370
    60
100
AcDbCircle
 10
-45.19381883063033
 20
-54.80433983635157
 30
0.0
 40
6.0
100
AcDbArc
 50
270.0
 51
0.0
  0
LINE
  5
CB
330
1F
100
AcDbEntity
  8
0
  6
K5LT32768
 62
     5
420
      255
370
    60
100
AcDbLine
 10
-39.19381883063033
 20
-54.80433983635157
 30
0.0
 11
-39.19381883063033
 21
-54.09236125274037
 31
0.0
  0
CIRCLE
  5
CC
330
1F
100
AcDbEntity
  8
0
  6
K5LT32768
 62
     5
420
      255
370
    60
100
AcDbCircle
 10
-53.01881883092574
 20
-11.05433983682451
 30
0.0
 40
1.000000000160071
  0
CIRCLE
  5
CD
330
1F
100
AcDbEntity
  8
0
  6
K5LT32768
 62
     5
420
      255
370
    60
100
AcDbCircle
 10
-47.01881883092574
 20
-11.05433983644616
 30
0.0
 40
1.000000000160071
  0
CIRCLE
  5
CE
330
1F
100
AcDbEntity
  8
0
  6
K5LT32768
 62
     5
420
      255
370
    60
100
AcDbCircle
 10
-50.01881883092574
 20
-10.10433983682015
 30
0.0
 40
0.9999999999982341
  0
CIRCLE
  5
CF
330
1F
100
AcDbEntity
  8
0
  6
K5LT32768
 62
     5
420
      255
370
    60
100
AcDbCircle
 10
-53.01881883092574
 20
-37.85433983634721
 30
0.0
 40
1.000000000160071
  0
CIRCLE
  5
D0
330
1F
100
AcDbEntity
  8
0
  6
K5LT32768
 62
     5
420
      255
370
    60
100
AcDbCircle
 10
-47.01881883092574
 20
-37.85433983672556
 30
0.0
 40
1.000000000160071
  0
CIRCLE
  5
D1
330
1F
100
AcDbEntity
  8
0
  6
K5LT32768
 62
     5
420
      255
370
    60
100
AcDbCircle
 10
-50.01881883092574
 20
-38.80433983635157
 30
0.0
 40
0.9999999999982341
  0
CIRCLE
  5
D2
330
1F
100
AcDbEntity
  8
0
  6
K5LT32768
 62
     5
420
      255
370
    60
100
AcDbCircle
 10
-56.91881883060705
 20
-56.89236125275056
 30
0.0
 40
1.0
  0
CIRCLE
  5
D3
330
1F
100
AcDbEntity
  8
0
  6
K5LT32768
 62
     5
420
      255
370
    60
100
AcDbCircle
 10
-43.11881883060414
 20
-56.89236125275056
 30
0.0
 40
1.0
  0
LINE
  5
D4
330
1F
100
AcDbEntity
  8
0
  6
K5LT32768
 62
     5
420
      255
370
    60
100
AcDbLine
 10
-55.84381883060269
 20
-12.95433983619296
 30
0.0
 11
-55.84381883060269
 21
-35.95433983697876
 31
0.0
  0
ARC
  5
D5
330
1F
100
AcDbEntity
  8
0
  6
K5LT32768
 62
     5
420
      255
370
    60
100
AcDbCircle
 10
-55.44381883060123
 20
-35.95433983697876
 30
0.0
 40
0.3999999999999773
100
AcDbArc
 50
179.9999999997883
 51
270.0
  0
LINE
  5
D6
330
1F
100
AcDbEntity
  8
0
  6
K5LT32768
 62
     5
420
      255
370
    60
100
AcDbLine
 10
-55.44381883060123
 20
-36.35433983698022
 30
0.0
 11
-50.01881883061287
 21
-36.35433983698022
 31
0.0
  0
LINE
  5
D7
330
1F
100
AcDbEntity
  8
0
  6
K5LT32768
 62
     5
420
      255
370
    60
100
AcDbLine
 10
-50.01881883061287
 20
-36.35433983698022
 30
0.0
 11
-44.59381883060996
 21
-36.35433983698022
 31
0.0
  0
ARC
  5
D8
330
1F
100
AcDbEntity
  8
0
  6
K5LT32768
 62
     5
420
      255
370
    60
100
AcDbCircle
 10
-44.59381883060996
 20
-35.95433983697876
 30
0.0
 40
0.4000000000000057
100
AcDbArc
 50
270.0
 51
0.0
  0
LINE
  5
D9
330
1F
100
AcDbEntity
  8
0
  6
K5LT32768
 62
     5
420
      255
370
    60
100
AcDbLine
 10
-44.19381883060851
 20
-35.95433983697876
 30
0.0
 11
-44.19381883060851
 21
-12.95433983619296
 31
0.0
  0
ARC
  5
DA
330
1F
100
AcDbEntity
  8
0
  6
K5LT32768
 62
     5
420
      255
370
    60
100
AcDbCircle
 10
-44.59381883060996
 20
-12.95433983619296
 30
0.0
 40
0.3999999999999773
100
AcDbArc
 50
0.0
 51
90.0
  0
LINE
  5
DB
330
1F
100
AcDbEntity
  8
0
  6
K5LT32768
 62
     5
420
      255
370
    60
100
AcDbLine
 10
-44.59381883060996
 20
-12.5543398361915
 30
0.0
 11
-50.01881883061287
 21
-12.5543398361915
 31
0.0
  0
LINE
  5
DC
330
1F
100
AcDbEntity
  8
0
  6
K5LT32768
 62
     5
420
      255
370
    60
100
AcDbLine
 10
-50.01881883061287
 20
-12.5543398361915
 30
0.0
 11
-55.44381883060123
 21
-12.5543398361915
 31
0.0
  0
ARC
  5
DD
330
1F
100
AcDbEntity
  8
0
  6
K5LT32768
 62
     5
420
      255
370
    60
100
AcDbCircle
 10
-55.44381883060123
 20
-12.95433983619296
 30
0.0
 40
0.4000000000000057
100
AcDbArc
 50
90.0
 51
180.0000000002035
  0
LINE
  5
DE
330
1F
100
AcDbEntity
  8
0
  6
K5LT32768
 62
     5
420
      255
370
    60
100
AcDbLine
 10
-60.84381883060269
 20
-54.09236125274765
 30
0.0
 11
-58.89749848705833
 21
-52.14604090920329
 31
0.0
  0
LINE
  5
DF
330
1F
100
AcDbEntity
  8
0
  6
K5LT32768
 62
     5
420
      255
370
    60
100
AcDbLine
 10
-59.84381883060269
 20
-14.1271585803479
 30
0.0
 11
-59.84381883060269
 21
-37.58769708449108
 31
0.0
  0
LINE
  5
E0
330
1F
100
AcDbEntity
  8
0
  6
K5LT32768
 62
     5
420
      255
370
    60
100
AcDbLine
 10
-58.96513917416451
 20
-39.7090174280529
 30
0.0
 11
-58.89749848705833
 21
-39.77665811515908
 31
0.0
  0
LINE
  5
E1
330
1F
100
AcDbEntity
  8
0
  6
K5LT32768
 62
     5
420
      255
370
    60
100
AcDbLine
 10
-58.01881883061287
 20
-48.59236125274765
 30
0.0
 11
-58.01881883061287
 21
-50.02472056564147
 31
0.0
  0
LINE
  5
E2
330
1F
100
AcDbEntity
  8
0
  6
K5LT32768
 62
     5
420
      255
370
    60
100
AcDbLine
 10
-58.01881883061287
 20
-48.59236125274765
 30
0.0
 11
-58.01881883061287
 21
-41.89797845872818
 31
0.0
  0
LINE
  5
E3
330
1F
100
AcDbEntity
  8
0
  6
K5LT32768
 62
     5
420
      255
370
    60
100
AcDbLine
 10
-50.01881883059104
 20
-8.254339836734289
 30
0.0
 11
-54.10166185958224
 21
-8.254339836734289
 31
0.0
  0
LINE
  5
E4
330
1F
100
AcDbEntity
  8
0
  6
K5LT32768
 62
     5
420
      255
370
    60
100
AcDbLine
 10
-57.03040881206834
 20
-9.529924066642707
 30
0.0
 11
-58.77256578308879
 21
-11.40274281025631
 31
0.0
  0
ARC
  5
E5
330
1F
100
AcDbEntity
  8
0
  6
K5LT32768
 62
     5
420
      255
370
    60
100
AcDbCircle
 10
-54.10166185958224
 20
-12.25433983673429
 30
0.0
 40
4.0
100
AcDbArc
 50
90.0
 51
137.0700306494351
  0
ARC
  5
E6
330
1F
100
AcDbEntity
  8
0
  6
K5LT32768
 62
     5
420
      255
370
    60
100
AcDbCircle
 10
-55.84381883060269
 20
-14.1271585803479
 30
0.0
 40
4.000000000000003
100
AcDbArc
 50
137.0700306495061
 51
180.0
  0
ARC
  5
E7
330
1F
100
AcDbEntity
  8
0
  6
K5LT32768
 62
     5
420
      255
370
    60
100
AcDbCircle
 10
-61.01881883061287
 20
-50.02472056564147
 30
0.0
 40
3.000000000000004
100
AcDbArc
 50
314.9999999999017
 51
0.0
  0
ARC
  5
E8
330
1F
100
AcDbEntity
  8
0
  6
K5LT32768
 62
     5
420
      255
370
    60
100
AcDbCircle
 10
-61.01881883061287
 20
-41.8979784587209
 30
0.0
 40
3.0
100
AcDbArc
 50
0.0
 51
45.00000000009827
  0
ARC
  5
E9
330
1F
100
AcDbEntity
  8
0
  6
K5LT32768
 62
     5
420
      255
370
    60
100
AcDbCircle
 10
-56.84381883060269
 20
-37.58769708449108
 30
0.0
 40
3.0
100
AcDbArc
 50
180.0
 51
225.0
  0
LINE
  5
EA
330
1F
100
AcDbEntity
  8
0
  6
K5LT32768
 62
     5
420
      255
370
    60
100
AcDbLine
 10
-39.19381883062306
 20
-54.09236125274765
 30
0.0
 11
-41.14013917416742
 21
-52.14604090920329
 31
0.0
  0
LINE
  5
EB
330
1F
100
AcDbEntity
  8
0
  6
K5LT32768
 62
     5
420
      255
370
    60
100
AcDbLine
 10
-40.19381883062306
 20
-14.1271585803479
 30
0.0
 11
-40.19381883062306
 21
-37.58769708449108
 31
0.0
  0
LINE
  5
EC
330
1F
100
AcDbEntity
  8
0
  6
K5LT32768
 62
     5
420
      255
370
    60
100
AcDbLine
 10
-41.07249848706124
 20
-39.7090174280529
 30
0.0
 11
-41.14013917416742
 21
-39.77665811515908
 31
0.0
  0
LINE
  5
ED
330
1F
100
AcDbEntity
  8
0
  6
K5LT32768
 62
     5
420
      255
370
    60
100
AcDbLine
 10
-42.01881883061287
 20
-48.59236125274765
 30
0.0
 11
-42.01881883061287
 21
-50.02472056564147
 31
0.0
  0
LINE
  5
EE
330
1F
100
AcDbEntity
  8
0
  6
K5LT32768
 62
     5
420
      255
370
    60
100
AcDbLine
 10
-42.01881883061287
 20
-48.59236125274765
 30
0.0
 11
-42.01881883061287
 21
-41.89797845872818
 31
0.0
  0
LINE
  5
EF
330
1F
100
AcDbEntity
  8
0
  6
K5LT32768
 62
     5
420
      255
370
    60
100
AcDbLine
 10
-50.0188188306347
 20
-8.254339836734289
 30
0.0
 11
-45.93597580164351
 21
-8.254339836734289
 31
0.0
  0
LINE
  5
F0
330
1F
100
AcDbEntity
  8
0
  6
K5LT32768
 62
     5
420
      255
370
    60
100
AcDbLine
 10
-43.0072288491574
 20
-9.529924066642707
 30
0.0
 11
-41.26507187813695
 21
-11.40274281025631
 31
0.0
  0
ARC
  5
F1
330
1F
100
AcDbEntity
  8
0
  6
K5LT32768
 62
     5
420
      255
370
    60
100
AcDbCircle
 10
-45.93597580164351
 20
-12.25433983673429
 30
0.0
 40
4.000000000000005
100
AcDbArc
 50
42.92996935056479
 51
90.0
  0
ARC
  5
F2
330
1F
100
AcDbEntity
  8
0
  6
K5LT32768
 62
     5
420
      255
370
    60
100
AcDbCircle
 10
-44.19381883062306
 20
-14.1271585803479
 30
0.0
 40
4.0
100
AcDbArc
 50
0.0
 51
42.92996935049385
  0
ARC
  5
F3
330
1F
100
AcDbEntity
  8
0
  6
K5LT32768
 62
     5
420
      255
370
    60
100
AcDbCircle
 10
-39.01881883061287
 20
-50.02472056564147
 30
0.0
 40
3.0
100
AcDbArc
 50
180.0
 51
225.0000000000983
  0
ARC
  5
F4
330
1F
100
AcDbEntity
  8
0
  6
K5LT32768
 62
     5
420
      255
370
    60
100
AcDbCircle
 10
-39.01881883061287
 20
-41.8979784587209
 30
0.0
 40
3.000000000000004
100
AcDbArc
 50
134.9999999999017
 51
180.0
  0
ARC
  5
F5
330
1F
100
AcDbEntity
  8
0
  6
K5LT32768
 62
     5
420
      255
370
    60
100
AcDbCircle
 10
-43.19381883062306
 20
-37.58769708449108
 30
0.0
 40
3.000000000000004
100
AcDbArc
 50
315.0
 51
0.0
  0
LINE
  5
F6
330
1F
100
AcDbEntity
  8
0
  6
K5LT32768
 62
     5
420
      255
370
    60
100
AcDbLine
 10
-54.01881883061287
 20
-44.59236125274037
 30
0.0
 11
-54.01881883061287
 21
-42.65433983644471
 31
0.0
  0
LINE
  5
F7
330
1F
100
AcDbEntity
  8
0
  6
K5LT32768
 62
     5
420
      255
370
    60
100
AcDbLine
 10
-53.01881883061287
 20
-41.65433983643743
 30
0.0
 11
-47.01881883061287
 21
-41.65433983643743
 31
0.0
  0
LINE
  5
F8
330
1F
100
AcDbEntity
  8
0
  6
K5LT32768
 62
     5
420
      255
370
    60
100
AcDbLine
 10
-53.01881883061287
 20
-45.59236125274765
 30
0.0
 11
-47.01881883061287
 21
-45.59236125275493
 31
0.0
  0
LINE
  5
F9
330
1F
100
AcDbEntity
  8
0
  6
K5LT32768
 62
     5
420
      255
370
    60
100
AcDbLine
 10
-46.01881883061287
 20
-44.59236125274765
 30
0.0
 11
-46.01881883061287
 21
-42.65433983644471
 31
0.0
  0
ARC
  5
FA
330
1F
100
AcDbEntity
  8
0
  6
K5LT32768
 62
     5
420
      255
370
    60
100
AcDbCircle
 10
-53.01881883061287
 20
-44.59236125274765
 30
0.0
 40
1.0
100
AcDbArc
 50
180.0
 51
270.0
  0
ARC
  5
FB
330
1F
100
AcDbEntity
  8
0
  6
K5LT32768
 62
     5
420
      255
370
    60
100
AcDbCircle
 10
-53.01881883061287
 20
-42.65433983643743
 30
0.0
 40
1.0
100
AcDbArc
 50
90.0
 51
180.0
  0
ARC
  5
FC
330
1F
100
AcDbEntity
  8
0
  6
K5LT32768
 62
     5
420
      255
370
    60
100
AcDbCircle
 10
-47.01881883061287
 20
-42.65433983643743
 30
0.0
 40
1.0
100
AcDbArc
 50
0.0
 51
90.0
  0
ARC
  5
FD
330
1F
100
AcDbEntity
  8
0
  6
K5LT32768
 62
     5
420
      255
370
    60
100
AcDbCircle
 10
-47.01881883061287
 20
-44.59236125274765
 30
0.0
 40
1.0
100
AcDbArc
 50
270.0
 51
0.0
  0
LINE
  5
FE
330
1F
100
AcDbEntity
  8
0
  6
K5LT32768
 62
     5
420
      255
370
    60
100
AcDbLine
 10
-23.55152597787674
 20
-38.40022562897501
 30
0.0
 11
-23.55152597788401
 21
-31.28500193983926
 31
0.0
  0
ARC
  5
FF
330
1F
100
AcDbEntity
  8
0
  6
K5LT32768
 62
     5
420
      255
370
    60
100
AcDbCircle
 10
-17.55152597788401
 20
-31.28500193984654
 30
0.0
 40
6.00000000000002
100
AcDbArc
 50
153.4746479832415
 51
179.9999999999293
  0
ARC
  5
100
330
1F
100
AcDbEntity
  8
0
  6
K5LT32768
 62
     5
420
      255
370
    60
100
AcDbCircle
 10
-26.05152597788401
 20
-27.0423612527229
 30
0.0
 40
3.499999999999984
100
AcDbArc
 50
333.4746479836051
 51
206.5253520165521
  0
ARC
  5
101
330
1F
100
AcDbEntity
  8
0
  6
K5LT32768
 62
     5
420
      255
370
    60
100
AcDbCircle
 10
-34.55152597786946
 20
-31.28500193986837
 30
0.0
 40
6.0
100
AcDbArc
 50
0.0
 51
26.52535201692826
  0
LINE
  5
102
330
1F
100
AcDbEntity
  8
0
  6
K5LT32768
 62
     5
420
      255
370
    60
100
AcDbLine
 10
-28.55152597786946
 20
-31.28500193984654
 30
0.0
 11
-28.55152597789856
 21
-41.87720986287603
 31
0.0
  0
ARC
  5
103
330
1F
100
AcDbEntity
  8
0
  6
K5LT32768
 62
     5
420
      255
370
    60
100
AcDbCircle
 10
-38.55152597789856
 20
-41.87720986286148
 30
0.0
 40
9.999999999999972
100
AcDbArc
 50
323.7506791173298
 51
0.0
  0
ARC
  5
104
330
1F
100
AcDbEntity
  8
0
  6
K5LT32768
 62
     5
420
      255
370
    60
100
AcDbCircle
 10
-26.05152597786218
 20
-51.0423612527229
 30
0.0
 40
5.500000000000006
100
AcDbArc
 50
143.7506791173329
 51
270.0
  0
LINE
  5
105
330
1F
100
AcDbEntity
  8
0
  6
K5LT32768
 62
     5
420
      255
370
    60
100
AcDbLine
 10
-26.05152597786218
 20
-56.5423612527229
 30
0.0
 11
-21.37995310261613
 21
-56.5423612527229
 31
0.0
  0
ARC
  5
106
330
1F
100
AcDbEntity
  8
0
  6
K5LT32768
 62
     5
420
      255
370
    60
100
AcDbCircle
 10
-21.37995310261613
 20
-54.5423612527229
 30
0.0
 40
2.0
100
AcDbArc
 50
270.0
 51
315.0000000001477
  0
LINE
  5
107
330
1F
100
AcDbEntity
  8
0
  6
K5LT32768
 62
     5
420
      255
370
    60
100
AcDbLine
 10
-19.96573954023916
 20
-55.95657481509259
 30
0.0
 11
-19.63731241549249
 21
-55.62814769034593
 31
0.0
  0
ARC
  5
108
330
1F
100
AcDbEntity
  8
0
  6
K5LT32768
 62
     5
420
      255
370
    60
100
AcDbCircle
 10
-18.22309885311552
 20
-57.04236125271562
 30
0.0
 40
2.0
100
AcDbArc
 50
90.0
 51
134.999999999943
  0
LINE
  5
109
330
1F
100
AcDbEntity
  8
0
  6
K5LT32768
 62
     5
420
      255
370
    60
100
AcDbLine
 10
-18.22309885312279
 20
-55.04236125271562
 30
0.0
 11
-13.05152597786946
 21
-55.0423612527229
 31
0.0
  0
LINE
  5
10A
330
1F
100
AcDbEntity
  8
0
  6
K5LT32768
 62
     5
420
      255
370
    60
100
AcDbLine
 10
-13.05152597786946
 20
-55.0423612527229
 30
0.0
 11
-10.87995310261613
 21
-55.0423612527229
 31
0.0
  0
ARC
  5
10B
330
1F
100
AcDbEntity
  8
0
  6
K5LT32768
 62
     5
420
      255
370
    60
100
AcDbCircle
 10
-10.87995310261613
 20
-57.0423612527229
 30
0.0
 40
2.000000000000006
100
AcDbArc
 50
45.00000000014768
 51
90.00000000000043
  0
LINE
  5
10C
330
1F
100
AcDbEntity
  8
0
  6
K5LT32768
 62
     5
420
      255
370
    60
100
AcDbLine
 10
-9.465739540246432
 20
-55.62814769034593
 30
0.0
 11
-9.137312415492488
 21
-55.95657481509987
 31
0.0
  0
ARC
  5
10D
330
1F
100
AcDbEntity
  8
0
  6
K5LT32768
 62
     5
420
      255
370
    60
100
AcDbCircle
 10
-7.723098853115516
 20
-54.54236125273017
 30
0.0
 40
2.000000000000006
100
AcDbArc
 50
224.999999999862
 51
270.0
  0
LINE
  5
10E
330
1F
100
AcDbEntity
  8
0
  6
K5LT32768
 62
     5
420
      255
370
    60
100
AcDbLine
 10
-7.723098853122792
 20
-56.54236125273017
 30
0.0
 11
-2.051525977876736
 21
-56.54236125273017
 31
0.0
  0
LINE
  5
10F
330
1F
100
AcDbEntity
  8
0
  6
K5LT32768
 62
     5
420
      255
370
    60
100
AcDbLine
 10
-2.051525977876736
 20
-45.5423612527229
 30
0.0
 11
-4.051525977876736
 21
-45.5423612527229
 31
0.0
  0
LINE
  5
110
330
1F
100
AcDbEntity
  8
0
  6
K5LT32768
 62
     5
420
      255
370
    60
100
AcDbLine
 10
-4.051525977876736
 20
-45.5423612527229
 30
0.0
 11
-4.051525977876736
 21
-51.0423612527229
 31
0.0
  0
LINE
  5
111
330
1F
100
AcDbEntity
  8
0
  6
K5LT32768
 62
     5
420
      255
370
    60
100
AcDbLine
 10
-4.051525977876736
 20
-51.0423612527229
 30
0.0
 11
-6.051525977876736
 21
-51.0423612527229
 31
0.0
  0
LINE
  5
112
330
1F
100
AcDbEntity
  8
0
  6
K5LT32768
 62
     5
420
      255
370
    60
100
AcDbLine
 10
-6.051525977876736
 20
-51.0423612527229
 30
0.0
 11
-6.05152597786946
 21
-45.5423612527229
 31
0.0
  0
LINE
  5
113
330
1F
100
AcDbEntity
  8
0
  6
K5LT32768
 62
     5
420
      255
370
    60
100
AcDbLine
 10
-6.05152597786946
 20
-45.5423612527229
 30
0.0
 11
-7.723098853115516
 21
-45.5423612527229
 31
0.0
  0
ARC
  5
114
330
1F
100
AcDbEntity
  8
0
  6
K5LT32768
 62
     5
420
      255
370
    60
100
AcDbCircle
 10
-7.723098853115516
 20
-47.5423612527229
 30
0.0
 40
2.0
100
AcDbArc
 50
90.0
 51
135.0000000004425
  0
LINE
  5
115
330
1F
100
AcDbEntity
  8
0
  6
K5LT32768
 62
     5
420
      255
370
    60
100
AcDbLine
 10
-9.137312415499764
 20
-46.12814769036048
 30
0.0
 11
-9.465739540239156
 21
-46.45657481510715
 31
0.0
  0
ARC
  5
116
330
1F
100
AcDbEntity
  8
0
  6
K5LT32768
 62
     5
420
      255
370
    60
100
AcDbCircle
 10
-10.87995310260158
 20
-45.0423612527229
 30
0.0
 40
2.0
100
AcDbArc
 50
270.0
 51
314.9999999999756
  0
LINE
  5
117
330
1F
100
AcDbEntity
  8
0
  6
K5LT32768
 62
     5
420
      255
370
    60
100
AcDbLine
 10
-10.87995310261613
 20
-47.0423612527229
 30
0.0
 11
-13.05152597786946
 21
-47.0423612527229
 31
0.0
  0
LINE
  5
118
330
1F
100
AcDbEntity
  8
0
  6
K5LT32768
 62
     5
420
      255
370
    60
100
AcDbLine
 10
-13.05152597786946
 20
-47.0423612527229
 30
0.0
 11
-18.22309885312279
 21
-47.0423612527229
 31
0.0
  0
ARC
  5
119
330
1F
100
AcDbEntity
  8
0
  6
K5LT32768
 62
     5
420
      255
370
    60
100
AcDbCircle
 10
-18.22309885312279
 20
-45.0423612527229
 30
0.0
 40
2.000000000000006
100
AcDbArc
 50
225.0000000001476
 51
270.0
  0
LINE
  5
11A
330
1F
100
AcDbEntity
  8
0
  6
K5LT32768
 62
     5
420
      255
370
    60
100
AcDbLine
 10
-19.63731241549249
 20
-46.45657481509987
 30
0.0
 11
-20.62259378974704
 21
-45.47129344084532
 31
0.0
  0
ARC
  5
11B
330
1F
100
AcDbEntity
  8
0
  6
K5LT32768
 62
     5
420
      255
370
    60
100
AcDbCircle
 10
-13.55152597787674
 20
-38.40022562898228
 30
0.0
 40
10.0
100
AcDbArc
 50
179.9999999999446
 51
224.9999999999608
  0
CIRCLE
  5
11C
330
1F
100
AcDbEntity
  8
0
  6
K5LT32768
 62
     5
420
      255
370
    60
100
AcDbCircle
 10
-26.05152597788401
 20
-27.0423612527229
 30
0.0
 40
1.5
  0
CIRCLE
  5
11D
330
1F
100
AcDbEntity
  8
0
  6
K5LT32768
 62
     5
420
      255
370
    60
100
AcDbCircle
 10
-26.05152597786218
 20
-51.0423612527229
 30
0.0
 40
2.0
  0
ARC
  5
11E
330
1F
100
AcDbEntity
  8
0
  6
K5LT32768
 62
     5
420
      255
370
    60
100
AcDbCircle
 10
22.24891584662691
 20
-57.04236125272291
 30
0.0
 40
2.000000000000006
100
AcDbArc
 50
45.00000000015689
 51
90.0
  0
LINE
  5
11F
330
1F
100
AcDbEntity
  8
0
  6
K5LT32768
 62
     5
420
      255
370
    60
100
AcDbLine
 10
23.66312940899661
 20
-55.62814769034593
 30
0.0
 11
23.99155653374328
 21
-55.9565748150926
 31
0.0
  0
ARC
  5
120
330
1F
100
AcDbEntity
  8
0
  6
K5LT32768
 62
     5
420
      255
370
    60
100
AcDbCircle
 10
25.40577009612025
 20
-54.54236125272291
 30
0.0
 40
2.000000000000006
100
AcDbArc
 50
224.9999999998529
 51
270.0
  0
LINE
  5
121
330
1F
100
AcDbEntity
  8
0
  6
K5LT32768
 62
     5
420
      255
370
    60
100
AcDbLine
 10
25.40577009612025
 20
-56.54236125272291
 30
0.0
 11
30.07734297136631
 21
-56.54236125272291
 31
0.0
  0
ARC
  5
122
330
1F
100
AcDbEntity
  8
0
  6
K5LT32768
 62
     5
420
      255
370
    60
100
AcDbCircle
 10
30.07734297136631
 20
-51.04236125272291
 30
0.0
 40
5.5
100
AcDbArc
 50
270.0
 51
0.0
  0
ARC
  5
123
330
1F
100
AcDbEntity
  8
0
  6
K5LT32768
 62
     5
420
      255
370
    60
100
AcDbCircle
 10
30.07734297136631
 20
-51.04236125272291
 30
0.0
 40
5.5
100
AcDbArc
 50
0.0
 51
90.0
  0
LINE
  5
124
330
1F
100
AcDbEntity
  8
0
  6
K5LT32768
 62
     5
420
      255
370
    60
100
AcDbLine
 10
30.07734297136631
 20
-45.54236125272291
 30
0.0
 11
25.40577009612025
 21
-45.54236125272291
 31
0.0
  0
ARC
  5
125
330
1F
100
AcDbEntity
  8
0
  6
K5LT32768
 62
     5
420
      255
370
    60
100
AcDbCircle
 10
25.40577009612025
 20
-47.54236125272291
 30
0.0
 40
2.0
100
AcDbArc
 50
90.0
 51
135.0000000001477
  0
LINE
  5
126
330
1F
100
AcDbEntity
  8
0
  6
K5LT32768
 62
     5
420
      255
370
    60
100
AcDbLine
 10
23.99155653374328
 20
-46.12814769035321
 30
0.0
 11
23.66312940899661
 21
-46.45657481509988
 31
0.0
  0
ARC
  5
127
330
1F
100
AcDbEntity
  8
0
  6
K5LT32768
 62
     5
420
      255
370
    60
100
AcDbCircle
 10
22.24891584661964
 20
-45.04236125273018
 30
0.0
 40
2.0
100
AcDbArc
 50
270.0
 51
314.999999999943
  0
LINE
  5
128
330
1F
100
AcDbEntity
  8
0
  6
K5LT32768
 62
     5
420
      255
370
    60
100
AcDbLine
 10
22.24891584662691
 20
-47.04236125273018
 30
0.0
 11
17.07734297137358
 21
-47.04236125272291
 31
0.0
  0
LINE
  5
129
330
1F
100
AcDbEntity
  8
0
  6
K5LT32768
 62
     5
420
      255
370
    60
100
AcDbLine
 10
17.07734297137358
 20
-47.04236125272291
 30
0.0
 11
14.90577009612025
 21
-47.04236125272291
 31
0.0
  0
ARC
  5
12A
330
1F
100
AcDbEntity
  8
0
  6
K5LT32768
 62
     5
420
      255
370
    60
100
AcDbCircle
 10
14.90577009612025
 20
-45.04236125272291
 30
0.0
 40
2.000000000000006
100
AcDbArc
 50
225.0000000001477
 51
270.0
  0
LINE
  5
12B
330
1F
100
AcDbEntity
  8
0
  6
K5LT32768
 62
     5
420
      255
370
    60
100
AcDbLine
 10
13.49155653375055
 20
-46.45657481509988
 30
0.0
 11
13.16312940899661
 21
-46.12814769034593
 31
0.0
  0
ARC
  5
12C
330
1F
100
AcDbEntity
  8
0
  6
K5LT32768
 62
     5
420
      255
370
    60
100
AcDbCircle
 10
11.74891584661964
 20
-47.54236125271563
 30
0.0
 40
2.000000000000006
100
AcDbArc
 50
44.99999999986209
 51
90.0
  0
LINE
  5
12D
330
1F
100
AcDbEntity
  8
0
  6
K5LT32768
 62
     5
420
      255
370
    60
100
AcDbLine
 10
11.74891584662691
 20
-45.54236125271563
 30
0.0
 11
6.077342971380858
 21
-45.54236125272291
 31
0.0
  0
LINE
  5
12E
330
1F
100
AcDbEntity
  8
0
  6
K5LT32768
 62
     5
420
      255
370
    60
100
AcDbLine
 10
6.077342971380858
 20
-56.54236125272291
 30
0.0
 11
8.077342971380858
 21
-56.54236125272291
 31
0.0
  0
LINE
  5
12F
330
1F
100
AcDbEntity
  8
0
  6
K5LT32768
 62
     5
420
      255
370
    60
100
AcDbLine
 10
8.077342971380858
 20
-56.54236125272291
 30
0.0
 11
8.077342971380858
 21
-51.04236125272291
 31
0.0
  0
LINE
  5
130
330
1F
100
AcDbEntity
  8
0
  6
K5LT32768
 62
     5
420
      255
370
    60
100
AcDbLine
 10
8.077342971380858
 20
-51.04236125272291
 30
0.0
 11
10.07734297138086
 21
-51.04236125272291
 31
0.0
  0
LINE
  5
131
330
1F
100
AcDbEntity
  8
0
  6
K5LT32768
 62
     5
420
      255
370
    60
100
AcDbLine
 10
10.07734297138086
 20
-51.04236125272291
 30
0.0
 11
10.07734297137358
 21
-56.54236125272291
 31
0.0
  0
LINE
  5
132
330
1F
100
AcDbEntity
  8
0
  6
K5LT32768
 62
     5
420
      255
370
    60
100
AcDbLine
 10
10.07734297137358
 20
-56.54236125272291
 30
0.0
 11
11.74891584661964
 21
-56.54236125272291
 31
0.0
  0
ARC
  5
133
330
1F
100
AcDbEntity
  8
0
  6
K5LT32768
 62
     5
420
      255
370
    60
100
AcDbCircle
 10
11.74891584661964
 20
-54.54236125272291
 30
0.0
 40
2.0
100
AcDbArc
 50
270.0
 51
315.0000000004425
  0
LINE
  5
134
330
1F
100
AcDbEntity
  8
0
  6
K5LT32768
 62
     5
420
      255
370
    60
100
AcDbLine
 10
13.16312940900389
 20
-55.95657481508533
 30
0.0
 11
13.49155653374328
 21
-55.62814769033866
 31
0.0
  0
ARC
  5
135
330
1F
100
AcDbEntity
  8
0
  6
K5LT32768
 62
     5
420
      255
370
    60
100
AcDbCircle
 10
14.9057700961057
 20
-57.04236125272291
 30
0.0
 40
2.0
100
AcDbArc
 50
90.0
 51
134.9999999999804
  0
LINE
  5
136
330
1F
100
AcDbEntity
  8
0
  6
K5LT32768
 62
     5
420
      255
370
    60
100
AcDbLine
 10
14.90577009612025
 20
-55.04236125272291
 30
0.0
 11
17.07734297137358
 21
-55.04236125272291
 31
0.0
  0
LINE
  5
137
330
1F
100
AcDbEntity
  8
0
  6
K5LT32768
 62
     5
420
      255
370
    60
100
AcDbLine
 10
17.07734297137358
 20
-55.04236125272291
 30
0.0
 11
22.24891584662691
 21
-55.04236125272291
 31
0.0
  0
CIRCLE
  5
138
330
1F
100
AcDbEntity
  8
0
  6
K5LT32768
 62
     5
420
      255
370
    60
100
AcDbCircle
 10
30.07734297136631
 20
-51.04236125272291
 30
0.0
 40
2.0
  0
LINE
  5
139
330
1F
100
AcDbEntity
  8
0
  6
K5LT32768
 62
     5
420
      255
370
    60
100
AcDbLine
 10
-21.05152597786218
 20
-51.0423612527229
 30
0.0
 11
-21.05152597786218
 21
-50.0423612527229
 31
0.0
  0
LINE
  5
13A
330
1F
100
AcDbEntity
  8
0
  6
K5LT32768
 62
     5
420
      255
370
    60
100
AcDbLine
 10
-21.05152597786218
 20
-51.0423612527229
 30
0.0
 11
-21.05152597786218
 21
-52.0423612527229
 31
0.0
  0
LINE
  5
13B
330
1F
100
AcDbEntity
  8
0
  6
K5LT32768
 62
     5
420
      255
370
    60
100
AcDbLine
 10
-9.051525977876736
 20
-51.0423612527229
 30
0.0
 11
-9.051525977876736
 21
-50.04236125273017
 31
0.0
  0
LINE
  5
13C
330
1F
100
AcDbEntity
  8
0
  6
K5LT32768
 62
     5
420
      255
370
    60
100
AcDbLine
 10
-9.051525977876736
 20
-51.0423612527229
 30
0.0
 11
-9.051525977876736
 21
-52.0423612527229
 31
0.0
  0
LINE
  5
13D
330
1F
100
AcDbEntity
  8
0
  6
K5LT32768
 62
     5
420
      255
370
    60
100
AcDbLine
 10
-13.05152597786946
 20
-53.04236125271562
 30
0.0
 11
-10.05152597787674
 21
-53.04236125271562
 31
0.0
  0
LINE
  5
13E
330
1F
100
AcDbEntity
  8
0
  6
K5LT32768
 62
     5
420
      255
370
    60
100
AcDbLine
 10
-0.0515259778767359
 20
-51.0423612527229
 30
0.0
 11
-0.0515259778767359
 21
-47.5423612527229
 31
0.0
  0
LINE
  5
13F
330
1F
100
AcDbEntity
  8
0
  6
K5LT32768
 62
     5
420
      255
370
    60
100
AcDbLine
 10
-0.0515259778767359
 20
-51.0423612527229
 30
0.0
 11
-0.0515259778767359
 21
-54.5423612527229
 31
0.0
  0
ARC
  5
140
330
1F
100
AcDbEntity
  8
0
  6
K5LT32768
 62
     5
420
      255
370
    60
100
AcDbCircle
 10
-2.051525977876736
 20
-47.5423612527229
 30
0.0
 40
2.0
100
AcDbArc
 50
0.0
 51
90.0
  0
ARC
  5
141
330
1F
100
AcDbEntity
  8
0
  6
K5LT32768
 62
     5
420
      255
370
    60
100
AcDbCircle
 10
-2.051525977876736
 20
-54.5423612527229
 30
0.0
 40
2.0
100
AcDbArc
 50
270.0
 51
0.0
  0
ARC
  5
142
330
1F
100
AcDbEntity
  8
0
  6
K5LT32768
 62
     5
420
      255
370
    60
100
AcDbCircle
 10
-10.05152597787674
 20
-50.0423612527229
 30
0.0
 40
1.0
100
AcDbArc
 50
0.0
 51
90.0
  0
ARC
  5
143
330
1F
100
AcDbEntity
  8
0
  6
K5LT32768
 62
     5
420
      255
370
    60
100
AcDbCircle
 10
-10.05152597787674
 20
-52.0423612527229
 30
0.0
 40
1.0
100
AcDbArc
 50
270.0
 51
0.0
  0
ARC
  5
144
330
1F
100
AcDbEntity
  8
0
  6
K5LT32768
 62
     5
420
      255
370
    60
100
AcDbCircle
 10
-20.05152597786218
 20
-50.0423612527229
 30
0.0
 40
1.0
100
AcDbArc
 50
90.0
 51
180.0
  0
ARC
  5
145
330
1F
100
AcDbEntity
  8
0
  6
K5LT32768
 62
     5
420
      255
370
    60
100
AcDbCircle
 10
-20.05152597786218
 20
-52.0423612527229
 30
0.0
 40
1.0
100
AcDbArc
 50
180.0
 51
270.0
  0
LINE
  5
146
330
1F
100
AcDbEntity
  8
0
  6
K5LT32768
 62
     5
420
      255
370
    60
100
AcDbLine
 10
-10.05152597787674
 20
-49.0423612527229
 30
0.0
 11
-13.05152597786946
 21
-49.04236125271562
 31
0.0
  0
LINE
  5
147
330
1F
100
AcDbEntity
  8
0
  6
K5LT32768
 62
     5
420
      255
370
    60
100
AcDbLine
 10
-14.05152597787674
 20
-52.04236125273017
 30
0.0
 11
-14.05152597786946
 21
-50.04236125271562
 31
0.0
  0
LINE
  5
148
330
1F
100
AcDbEntity
  8
0
  6
K5LT32768
 62
     5
420
      255
370
    60
100
AcDbLine
 10
-16.05152597786946
 20
-52.04236125273017
 30
0.0
 11
-16.05152597786946
 21
-50.04236125271562
 31
0.0
  0
LINE
  5
149
330
1F
100
AcDbEntity
  8
0
  6
K5LT32768
 62
     5
420
      255
370
    60
100
AcDbLine
 10
-17.05152597786946
 20
-49.04236125271562
 30
0.0
 11
-20.05152597786218
 21
-49.0423612527229
 31
0.0
  0
LINE
  5
14A
330
1F
100
AcDbEntity
  8
0
  6
K5LT32768
 62
     5
420
      255
370
    60
100
AcDbLine
 10
-17.05152597787674
 20
-53.04236125273017
 30
0.0
 11
-20.05152597786218
 21
-53.0423612527229
 31
0.0
  0
ARC
  5
14B
330
1F
100
AcDbEntity
  8
0
  6
K5LT32768
 62
     5
420
      255
370
    60
100
AcDbCircle
 10
-13.05152597786946
 20
-50.04236125271562
 30
0.0
 40
1.0
100
AcDbArc
 50
90.0
 51
180.0
  0
ARC
  5
14C
330
1F
100
AcDbEntity
  8
0
  6
K5LT32768
 62
     5
420
      255
370
    60
100
AcDbCircle
 10
-13.05152597786946
 20
-52.0423612527229
 30
0.0
 40
1.0
100
AcDbArc
 50
180.0
 51
270.0
  0
ARC
  5
14D
330
1F
100
AcDbEntity
  8
0
  6
K5LT32768
 62
     5
420
      255
370
    60
100
AcDbCircle
 10
-17.05152597786946
 20
-50.04236125271562
 30
0.0
 40
1.0
100
AcDbArc
 50
0.0
 51
90.0
  0
ARC
  5
14E
330
1F
100
AcDbEntity
  8
0
  6
K5LT32768
 62
     5
420
      255
370
    60
100
AcDbCircle
 10
-17.05152597786946
 20
-52.0423612527229
 30
0.0
 40
1.0
100
AcDbArc
 50
270.0
 51
0.0
  0
LINE
  5
14F
330
1F
100
AcDbEntity
  8
0
  6
K5LT32768
 62
     5
420
      255
370
    60
100
AcDbLine
 10
4.077342971380858
 20
-51.04236125272291
 30
0.0
 11
4.077342971380858
 21
-54.54236125272291
 31
0.0
  0
LINE
  5
150
330
1F
100
AcDbEntity
  8
0
  6
K5LT32768
 62
     5
420
      255
370
    60
100
AcDbLine
 10
4.077342971380858
 20
-51.04236125272291
 30
0.0
 11
4.077342971380858
 21
-47.54236125272291
 31
0.0
  0
ARC
  5
151
330
1F
100
AcDbEntity
  8
0
  6
K5LT32768
 62
     5
420
      255
370
    60
100
AcDbCircle
 10
6.077342971380858
 20
-54.54236125272291
 30
0.0
 40
2.0
100
AcDbArc
 50
180.0
 51
270.0
  0
ARC
  5
152
330
1F
100
AcDbEntity
  8
0
  6
K5LT32768
 62
     5
420
      255
370
    60
100
AcDbCircle
 10
6.077342971380858
 20
-47.54236125272291
 30
0.0
 40
2.0
100
AcDbArc
 50
90.0
 51
180.0
  0
LINE
  5
153
330
1F
100
AcDbEntity
  8
0
  6
K5LT32768
 62
     5
420
      255
370
    60
100
AcDbLine
 10
25.07734297136631
 20
-51.04236125272291
 30
0.0
 11
25.07734297136631
 21
-52.04236125272291
 31
0.0
  0
LINE
  5
154
330
1F
100
AcDbEntity
  8
0
  6
K5LT32768
 62
     5
420
      255
370
    60
100
AcDbLine
 10
25.07734297136631
 20
-51.04236125272291
 30
0.0
 11
25.07734297136631
 21
-50.04236125272291
 31
0.0
  0
LINE
  5
155
330
1F
100
AcDbEntity
  8
0
  6
K5LT32768
 62
     5
420
      255
370
    60
100
AcDbLine
 10
13.07734297138086
 20
-51.04236125272291
 30
0.0
 11
13.07734297138086
 21
-52.04236125271563
 31
0.0
  0
LINE
  5
156
330
1F
100
AcDbEntity
  8
0
  6
K5LT32768
 62
     5
420
      255
370
    60
100
AcDbLine
 10
13.07734297138086
 20
-51.04236125272291
 30
0.0
 11
13.07734297138086
 21
-50.04236125272291
 31
0.0
  0
LINE
  5
157
330
1F
100
AcDbEntity
  8
0
  6
K5LT32768
 62
     5
420
      255
370
    60
100
AcDbLine
 10
17.07734297137358
 20
-49.04236125273018
 30
0.0
 11
14.07734297138086
 21
-49.04236125273018
 31
0.0
  0
ARC
  5
158
330
1F
100
AcDbEntity
  8
0
  6
K5LT32768
 62
     5
420
      255
370
    60
100
AcDbCircle
 10
14.07734297138086
 20
-52.04236125272291
 30
0.0
 40
1.0
100
AcDbArc
 50
180.0
 51
270.0
  0
ARC
  5
159
330
1F
100
AcDbEntity
  8
0
  6
K5LT32768
 62
     5
420
      255
370
    60
100
AcDbCircle
 10
14.07734297138086
 20
-50.04236125272291
 30
0.0
 40
1.0
100
AcDbArc
 50
90.0
 51
180.0
  0
ARC
  5
15A
330
1F
100
AcDbEntity
  8
0
  6
K5LT32768
 62
     5
420
      255
370
    60
100
AcDbCircle
 10
24.07734297136631
 20
-52.04236125272291
 30
0.0
 40
1.0
100
AcDbArc
 50
270.0
 51
0.0
  0
ARC
  5
15B
330
1F
100
AcDbEntity
  8
0
  6
K5LT32768
 62
     5
420
      255
370
    60
100
AcDbCircle
 10
24.07734297136631
 20
-50.04236125272291
 30
0.0
 40
1.0
100
AcDbArc
 50
0.0
 51
90.0
  0
LINE
  5
15C
330
1F
100
AcDbEntity
  8
0
  6
K5LT32768
 62
     5
420
      255
370
    60
100
AcDbLine
 10
14.07734297138086
 20
-53.04236125272291
 30
0.0
 11
17.07734297137358
 21
-53.04236125273018
 31
0.0
  0
LINE
  5
15D
330
1F
100
AcDbEntity
  8
0
  6
K5LT32768
 62
     5
420
      255
370
    60
100
AcDbLine
 10
18.07734297138086
 20
-50.04236125271563
 30
0.0
 11
18.07734297137358
 21
-52.04236125273018
 31
0.0
  0
LINE
  5
15E
330
1F
100
AcDbEntity
  8
0
  6
K5LT32768
 62
     5
420
      255
370
    60
100
AcDbLine
 10
20.07734297137358
 20
-50.04236125271563
 30
0.0
 11
20.07734297137358
 21
-52.04236125273018
 31
0.0
  0
LINE
  5
15F
330
1F
100
AcDbEntity
  8
0
  6
K5LT32768
 62
     5
420
      255
370
    60
100
AcDbLine
 10
21.07734297137358
 20
-53.04236125273018
 30
0.0
 11
24.07734297136631
 21
-53.04236125272291
 31
0.0
  0
LINE
  5
160
330
1F
100
AcDbEntity
  8
0
  6
K5LT32768
 62
     5
420
      255
370
    60
100
AcDbLine
 10
21.07734297138086
 20
-49.04236125271563
 30
0.0
 11
24.07734297136631
 21
-49.04236125272291
 31
0.0
  0
ARC
  5
161
330
1F
100
AcDbEntity
  8
0
  6
K5LT32768
 62
     5
420
      255
370
    60
100
AcDbCircle
 10
17.07734297137358
 20
-52.04236125273018
 30
0.0
 40
1.0
100
AcDbArc
 50
270.0
 51
0.0
  0
ARC
  5
162
330
1F
100
AcDbEntity
  8
0
  6
K5LT32768
 62
     5
420
      255
370
    60
100
AcDbCircle
 10
17.07734297137358
 20
-50.04236125272291
 30
0.0
 40
1.0
100
AcDbArc
 50
0.0
 51
90.0
  0
ARC
  5
163
330
1F
100
AcDbEntity
  8
0
  6
K5LT32768
 62
     5
420
      255
370
    60
100
AcDbCircle
 10
21.07734297137358
 20
-52.04236125273018
 30
0.0
 40
1.0
100
AcDbArc
 50
180.0
 51
270.0
  0
ARC
  5
164
330
1F
100
AcDbEntity
  8
0
  6
K5LT32768
 62
     5
420
      255
370
    60
100
AcDbCircle
 10
21.07734297137358
 20
-50.04236125272291
 30
0.0
 40
1.0
100
AcDbArc
 50
90.0
 51
180.0
  0
LINE
  5
165
330
1F
100
AcDbEntity
  8
0
  6
K5LT_BASIC
 62
     5
420
      255
370
    60
100
AcDbLine
 10
96.30633839838993
 20
-61.44236125273164
 30
0.0
 11
104.3063383983899
 21
-61.44236125272437
 31
0.0
  0
ARC
  5
166
330
1F
100
AcDbEntity
  8
0
  6
K5LT_BASIC
 62
     5
420
      255
370
    60
100
AcDbCircle
 10
104.3063383983899
 20
-57.44236125272437
 30
0.0
 40
4.0
100
AcDbArc
 50
269.9999999999625
 51
318.7001272082625
  0
ARC
  5
167
330
1F
100
AcDbEntity
  8
0
  6
K5LT_BASIC
 62
     5
420
      255
370
    60
100
AcDbCircle
 10
111.818994386791
 20
-64.04236125272291
 30
0.0
 40
6.0
100
AcDbArc
 50
89.99999999999987
 51
138.7001272083338
  0
LINE
  5
168
330
1F
100
AcDbEntity
  8
0
  6
K5LT_BASIC
 62
     5
420
      255
370
    60
100
AcDbLine
 10
111.818994386791
 20
-58.04236125272291
 30
0.0
 11
262.5060939911928
 21
-58.04236125272291
 31
0.0
  0
LINE
  5
169
330
1F
100
AcDbEntity
  8
0
  6
K5LT_BASIC
 62
     5
420
      255
370
    60
100
AcDbLine
 10
262.5060939911928
 20
-58.04236125272291
 30
0.0
 11
382.0060939911928
 21
-58.04236125272291
 31
0.0
  0
LINE
  5
16A
330
1F
100
AcDbEntity
  8
0
  6
K5LT_BASIC
 62
     5
420
      255
370
    60
100
AcDbLine
 10
382.0060939911928
 20
-58.04236125272291
 30
0.0
 11
389.7936824099888
 21
-58.04236125272291
 31
0.0
  0
ARC
  5
16B
330
1F
100
AcDbEntity
  8
0
  6
K5LT_BASIC
 62
     5
420
      255
370
    60
100
AcDbCircle
 10
389.7936824099888
 20
-64.04236125272291
 30
0.0
 40
5.999999999999972
100
AcDbArc
 50
41.29987279166647
 51
89.99999999999947
  0
ARC
  5
16C
330
1F
100
AcDbEntity
  8
0
  6
K5LT_BASIC
 62
     5
420
      255
370
    60
100
AcDbCircle
 10
397.3063383983899
 20
-57.44236125272437
 30
0.0
 40
4.000000000000002
100
AcDbArc
 50
221.2998727917375
 51
270.0000000000375
  0
LINE
  5
16D
330
1F
100
AcDbEntity
  8
0
  6
K5LT_BASIC
 62
     5
420
      255
370
    60
100
AcDbLine
 10
397.3063383983899
 20
-61.44236125272437
 30
0.0
 11
401.344471661876
 21
-61.44236125272437
 31
0.0
  0
ARC
  5
16E
330
1F
100
AcDbEntity
  8
0
  6
K5LT_BASIC
 62
     5
420
      255
370
    60
100
AcDbCircle
 10
401.3063384025227
 20
-57.44254302504123
 30
0.0
 40
4.00000000000002
100
AcDbArc
 50
270.5462269791471
 51
0.0026036966041067
  0
LINE
  5
16F
330
1F
100
AcDbEntity
  8
0
  6
K5LT_BASIC
 62
     5
420
      255
370
    60
100
AcDbLine
 10
405.3063383983899
 20
-57.44236125272437
 30
0.0
 11
405.3063383983899
 21
-56.04236125275202
 31
0.0
  0
ARC
  5
170
330
1F
100
AcDbEntity
  8
0
  6
K5LT_BASIC
 62
     5
420
      255
370
    60
100
AcDbCircle
 10
401.3063383983899
 20
-56.04236125275202
 30
0.0
 40
4.0
100
AcDbArc
 50
0.0
 51
89.99999999989578
  0
LINE
  5
171
330
1F
100
AcDbEntity
  8
0
  6
K5LT_BASIC
 62
     5
420
      255
370
    60
100
AcDbLine
 10
401.3063383983972
 20
-52.04236125275202
 30
0.0
 11
374.3063383983899
 21
-52.04236125272291
 31
0.0
  0
LINE
  5
172
330
1F
100
AcDbEntity
  8
0
  6
K5LT_BASIC
 62
     5
420
      255
370
    60
100
AcDbLine
 10
374.3063383983899
 20
-52.04236125272291
 30
0.0
 11
374.3063383983899
 21
-51.04236125272291
 31
0.0
  0
LINE
  5
173
330
1F
100
AcDbEntity
  8
0
  6
K5LT_BASIC
 62
     5
420
      255
370
    60
100
AcDbLine
 10
374.3063383983899
 20
-51.04236125272291
 30
0.0
 11
374.3063383983899
 21
-50.04236125272291
 31
0.0
  0
LINE
  5
174
330
1F
100
AcDbEntity
  8
0
  6
K5LT_BASIC
 62
     5
420
      255
370
    60
100
AcDbLine
 10
374.3063383983899
 20
-50.04236125272291
 30
0.0
 11
401.3063383983754
 21
-50.04236125275202
 31
0.0
  0
ARC
  5
175
330
1F
100
AcDbEntity
  8
0
  6
K5LT_BASIC
 62
     5
420
      255
370
    60
100
AcDbCircle
 10
401.3063383983826
 20
-46.04236125275202
 30
0.0
 40
4.0
100
AcDbArc
 50
269.9999999998942
 51
0.0
  0
LINE
  5
176
330
1F
100
AcDbEntity
  8
0
  6
K5LT_BASIC
 62
     5
420
      255
370
    60
100
AcDbLine
 10
405.3063383983826
 20
-46.04236125279567
 30
0.0
 11
405.3063383983899
 21
-44.64236125272873
 31
0.0
  0
ARC
  5
177
330
1F
100
AcDbEntity
  8
0
  6
K5LT_BASIC
 62
     5
420
      255
370
    60
100
AcDbCircle
 10
401.3063383983899
 20
-44.64236125272873
 30
0.0
 40
4.0
100
AcDbArc
 50
0.0
 51
90.0
  0
LINE
  5
178
330
1F
100
AcDbEntity
  8
0
  6
K5LT_BASIC
 62
     5
420
      255
370
    60
100
AcDbLine
 10
401.3063383983899
 20
-40.64236125272873
 30
0.0
 11
397.3063383983899
 21
-40.64236125272873
 31
0.0
  0
ARC
  5
179
330
1F
100
AcDbEntity
  8
0
  6
K5LT_BASIC
 62
     5
420
      255
370
    60
100
AcDbCircle
 10
397.3063383983899
 20
-44.64236125272873
 30
0.0
 40
4.0
100
AcDbArc
 50
89.99999999999919
 51
138.7001272082564
  0
ARC
  5
17A
330
1F
100
AcDbEntity
  8
0
  6
K5LT_BASIC
 62
     5
420
      255
370
    60
100
AcDbCircle
 10
389.7936824099961
 20
-38.04236125272291
 30
0.0
 40
6.0
100
AcDbArc
 50
269.9999999999838
 51
318.7001272082452
  0
LINE
  5
17B
330
1F
100
AcDbEntity
  8
0
  6
K5LT_BASIC
 62
     5
420
      255
370
    60
100
AcDbLine
 10
389.7936824099961
 20
-44.04236125272291
 30
0.0
 11
382.0060939911928
 21
-44.04236125272291
 31
0.0
  0
LINE
  5
17C
330
1F
100
AcDbEntity
  8
0
  6
K5LT_BASIC
 62
     5
420
      255
370
    60
100
AcDbLine
 10
382.0060939911928
 20
-44.04236125272291
 30
0.0
 11
262.5060939911928
 21
-44.04236125272291
 31
0.0
  0
LINE
  5
17D
330
1F
100
AcDbEntity
  8
0
  6
K5LT_BASIC
 62
     5
420
      255
370
    60
100
AcDbLine
 10
262.5060939911928
 20
-44.04236125272291
 30
0.0
 11
111.8189943867837
 21
-44.04236125272291
 31
0.0
  0
ARC
  5
17E
330
1F
100
AcDbEntity
  8
0
  6
K5LT_BASIC
 62
     5
420
      255
370
    60
100
AcDbCircle
 10
111.8189943867837
 20
-38.04236125272291
 30
0.0
 40
5.999999999999991
100
AcDbArc
 50
221.2998727917646
 51
269.9999999999998
  0
ARC
  5
17F
330
1F
100
AcDbEntity
  8
0
  6
K5LT_BASIC
 62
     5
420
      255
370
    60
100
AcDbCircle
 10
104.3063383983899
 20
-44.64236125272873
 30
0.0
 40
4.000000000000044
100
AcDbArc
 50
41.29987279172835
 51
90.00000000002424
  0
LINE
  5
180
330
1F
100
AcDbEntity
  8
0
  6
K5LT_BASIC
 62
     5
420
      255
370
    60
100
AcDbLine
 10
104.3063383983899
 20
-40.64236125272873
 30
0.0
 11
96.30633839838993
 21
-40.64236125272873
 31
0.0
  0
ARC
  5
181
330
1F
100
AcDbEntity
  8
0
  6
K5LT_BASIC
 62
     5
420
      255
370
    60
100
AcDbCircle
 10
96.34447162882134
 20
-42.64199768386607
 30
0.0
 40
2.00000000000001
100
AcDbArc
 50
91.09250278231308
 51
180.0104154803004
  0
LINE
  5
182
330
1F
100
AcDbEntity
  8
0
  6
K5LT_BASIC
 62
     5
420
      255
370
    60
100
AcDbLine
 10
94.34447166186874
 20
-42.64236125271418
 30
0.0
 11
94.34447166186874
 21
-43.04236125272291
 31
0.0
  0
ARC
  5
183
330
1F
100
AcDbEntity
  8
0
  6
K5LT_BASIC
 62
     5
420
      255
370
    60
100
AcDbCircle
 10
92.34447166186874
 20
-43.04236125272291
 30
0.0
 40
2.0
100
AcDbArc
 50
270.0
 51
0.0
  0
LINE
  5
184
330
1F
100
AcDbEntity
  8
0
  6
K5LT_BASIC
 62
     5
420
      255
370
    60
100
AcDbLine
 10
92.34447166186874
 20
-45.04236125272291
 30
0.0
 11
85.30633839838265
 21
-45.04236125272291
 31
0.0
  0
ARC
  5
185
330
1F
100
AcDbEntity
  8
0
  6
K5LT_BASIC
 62
     5
420
      255
370
    60
100
AcDbCircle
 10
85.3063383983972
 20
-49.04236125272291
 30
0.0
 40
4.0
100
AcDbArc
 50
90.00000000020843
 51
180.0
  0
LINE
  5
186
330
1F
100
AcDbEntity
  8
0
  6
K5LT_BASIC
 62
     5
420
      255
370
    60
100
AcDbLine
 10
81.3063383983972
 20
-49.04236125272291
 30
0.0
 11
81.30633839838265
 21
-53.04236125272291
 31
0.0
  0
ARC
  5
187
330
1F
100
AcDbEntity
  8
0
  6
K5LT_BASIC
 62
     5
420
      255
370
    60
100
AcDbCircle
 10
85.30633839838265
 20
-53.04236125272291
 30
0.0
 40
4.0
100
AcDbArc
 50
180.0
 51
270.0
  0
LINE
  5
188
330
1F
100
AcDbEntity
  8
0
  6
K5LT_BASIC
 62
     5
420
      255
370
    60
100
AcDbLine
 10
85.30633839838265
 20
-57.04236125272291
 30
0.0
 11
92.34447166186874
 21
-57.04236125272291
 31
0.0
  0
ARC
  5
189
330
1F
100
AcDbEntity
  8
0
  6
K5LT_BASIC
 62
     5
420
      255
370
    60
100
AcDbCircle
 10
92.34447166186874
 20
-59.04236125272291
 30
0.0
 40
2.0
100
AcDbArc
 50
0.0
 51
90.0
  0
LINE
  5
18A
330
1F
100
AcDbEntity
  8
0
  6
K5LT_BASIC
 62
     5
420
      255
370
    60
100
AcDbLine
 10
94.34447166186874
 20
-59.04236125272291
 30
0.0
 11
94.34447166186874
 21
-59.44236125273164
 31
0.0
  0
ARC
  5
18B
330
1F
100
AcDbEntity
  8
0
  6
K5LT_BASIC
 62
     5
420
      255
370
    60
100
AcDbCircle
 10
96.34447162882134
 20
-59.44272482159431
 30
0.0
 40
1.999999999999999
100
AcDbArc
 50
179.9895845192827
 51
268.9074972176869
  0
CIRCLE
  5
18C
330
1F
100
AcDbEntity
  8
0
  6
K5LT_BASIC
 62
     5
420
      255
370
    60
100
AcDbCircle
 10
102.3063383983899
 20
-45.04236125272291
 30
0.0
 40
1.5
  0
CIRCLE
  5
18D
330
1F
100
AcDbEntity
  8
0
  6
K5LT_BASIC
 62
     5
420
      255
370
    60
100
AcDbCircle
 10
102.3063383983899
 20
-57.04236125272291
 30
0.0
 40
1.5
  0
ARC
  5
18E
330
1F
100
AcDbEntity
  8
0
  6
K5LT_BASIC
 62
     5
420
      255
370
    60
100
AcDbCircle
 10
397.8063383983899
 20
-57.04236125272291
 30
0.0
 40
1.5
100
AcDbArc
 50
90.0
 51
270.0
  0
LINE
  5
18F
330
1F
100
AcDbEntity
  8
0
  6
K5LT_BASIC
 62
     5
420
      255
370
    60
100
AcDbLine
 10
397.8063383983899
 20
-58.54236125272291
 30
0.0
 11
400.8063383983899
 21
-58.54236125272291
 31
0.0
  0
ARC
  5
190
330
1F
100
AcDbEntity
  8
0
  6
K5LT_BASIC
 62
     5
420
      255
370
    60
100
AcDbCircle
 10
400.8063383983899
 20
-57.04236125272291
 30
0.0
 40
1.5
100
AcDbArc
 50
270.0
 51
90.0
  0
LINE
  5
191
330
1F
100
AcDbEntity
  8
0
  6
K5LT_BASIC
 62
     5
420
      255
370
    60
100
AcDbLine
 10
400.8063383983899
 20
-55.54236125272291
 30
0.0
 11
397.8063383983899
 21
-55.54236125272291
 31
0.0
  0
LINE
  5
192
330
1F
100
AcDbEntity
  8
0
  6
K5LT_BASIC
 62
     5
420
      255
370
    60
100
AcDbLine
 10
397.8063383983899
 20
-46.54236125272291
 30
0.0
 11
400.8063383983899
 21
-46.54236125272291
 31
0.0
  0
ARC
  5
193
330
1F
100
AcDbEntity
  8
0
  6
K5LT_BASIC
 62
     5
420
      255
370
    60
100
AcDbCircle
 10
400.8063383983899
 20
-45.04236125272291
 30
0.0
 40
1.5
100
AcDbArc
 50
270.0
 51
90.0
  0
LINE
  5
194
330
1F
100
AcDbEntity
  8
0
  6
K5LT_BASIC
 62
     5
420
      255
370
    60
100
AcDbLine
 10
400.8063383983899
 20
-43.54236125272291
 30
0.0
 11
397.8063383983899
 21
-43.54236125272291
 31
0.0
  0
ARC
  5
195
330
1F
100
AcDbEntity
  8
0
  6
K5LT_BASIC
 62
     5
420
      255
370
    60
100
AcDbCircle
 10
397.8063383983899
 20
-45.04236125272291
 30
0.0
 40
1.5
100
AcDbArc
 50
90.0
 51
270.0
  0
LINE
  5
196
330
1F
100
AcDbEntity
  8
0
  6
K5LT_BASIC
 62
     5
420
      255
370
    60
100
AcDbLine
 10
106.3063383983899
 20
-52.04236125272291
 30
0.0
 11
106.3063383983972
 21
-50.04236125272291
 31
0.0
  0
LINE
  5
197
330
1F
100
AcDbEntity
  8
0
  6
K5LT_BASIC
 62
     5
420
      255
370
    60
100
AcDbLine
 10
106.3063383983972
 20
-50.04236125272291
 30
0.0
 11
102.3063383983826
 21
-50.04236125272291
 31
0.0
  0
LINE
  5
198
330
1F
100
AcDbEntity
  8
0
  6
K5LT_BASIC
 62
     5
420
      255
370
    60
100
AcDbLine
 10
102.3063383983826
 20
-50.04236125272291
 30
0.0
 11
91.30633839836082
 21
-50.04236125294847
 31
0.0
  0
LINE
  5
199
330
1F
100
AcDbEntity
  8
0
  6
K5LT_BASIC
 62
     5
420
      255
370
    60
100
AcDbLine
 10
91.30633839836082
 20
-50.04236125294847
 30
0.0
 11
91.30633839837537
 21
-51.04236125274474
 31
0.0
  0
LINE
  5
19A
330
1F
100
AcDbEntity
  8
0
  6
K5LT_BASIC
 62
     5
420
      255
370
    60
100
AcDbLine
 10
91.30633839837537
 20
-51.04236125274474
 30
0.0
 11
91.30633839837537
 21
-52.04236125294847
 31
0.0
  0
LINE
  5
19B
330
1F
100
AcDbEntity
  8
0
  6
K5LT_BASIC
 62
     5
420
      255
370
    60
100
AcDbLine
 10
91.30633839837537
 20
-52.04236125294847
 30
0.0
 11
102.3063383983754
 21
-52.04236125272291
 31
0.0
  0
LINE
  5
19C
330
1F
100
AcDbEntity
  8
0
  6
K5LT_BASIC
 62
     5
420
      255
370
    60
100
AcDbLine
 10
102.3063383983754
 20
-52.04236125272291
 30
0.0
 11
106.3063383983899
 21
-52.04236125272291
 31
0.0
  0
LINE
  5
19D
330
1F
100
AcDbEntity
  8
0
  6
K5LT_BASIC
 62
     5
420
      255
370
    60
100
AcDbLine
 10
111.3063383983899
 20
-51.04236125272291
 30
0.0
 11
111.3063383983899
 21
-53.04236125272291
 31
0.0
  0
LINE
  5
19E
330
1F
100
AcDbEntity
  8
0
  6
K5LT_BASIC
 62
     5
420
      255
370
    60
100
AcDbLine
 10
111.3063383983899
 20
-51.04236125272291
 30
0.0
 11
111.3063383983899
 21
-49.04236125272291
 31
0.0
  0
LINE
  5
19F
330
1F
100
AcDbEntity
  8
0
  6
K5LT_BASIC
 62
     5
420
      255
370
    60
100
AcDbLine
 10
112.3063383983899
 20
-54.04236125272291
 30
0.0
 11
113.3825339982213
 21
-54.04236125272291
 31
0.0
  0
LINE
  5
1A0
330
1F
100
AcDbEntity
  8
0
  6
K5LT_BASIC
 62
     5
420
      255
370
    60
100
AcDbLine
 10
256.0750328292488
 20
-48.04236125273019
 30
0.0
 11
240.2954762353183
 21
-48.04236125272291
 31
0.0
  0
LINE
  5
1A1
330
1F
100
AcDbEntity
  8
0
  6
K5LT_BASIC
 62
     5
420
      255
370
    60
100
AcDbLine
 10
262.5060939911928
 20
-54.04236125272291
 30
0.0
 11
270.8422367832536
 21
-54.04236125272291
 31
0.0
  0
LINE
  5
1A2
330
1F
100
AcDbEntity
  8
0
  6
K5LT_BASIC
 62
     5
420
      255
370
    60
100
AcDbLine
 10
368.3063383983899
 20
-48.04236125272291
 30
0.0
 11
366.6794375302998
 21
-48.04236125272291
 31
0.0
  0
LINE
  5
1A3
330
1F
100
AcDbEntity
  8
0
  6
K5LT_BASIC
 62
     5
420
      255
370
    60
100
AcDbLine
 10
369.3063383983899
 20
-51.04236125272291
 30
0.0
 11
369.3063383983899
 21
-49.04236125272291
 31
0.0
  0
LINE
  5
1A4
330
1F
100
AcDbEntity
  8
0
  6
K5LT_BASIC
 62
     5
420
      255
370
    60
100
AcDbLine
 10
369.3063383983899
 20
-51.04236125272291
 30
0.0
 11
369.3063383983899
 21
-53.04236125272291
 31
0.0
  0
LINE
  5
1A5
330
1F
100
AcDbEntity
  8
0
  6
K5LT_BASIC
 62
     5
420
      255
370
    60
100
AcDbLine
 10
270.8496926467269
 20
-51.35571987522417
 30
0.0
 11
265.0121391923458
 21
-49.23102417688642
 31
0.0
  0
LINE
  5
1A6
330
1F
100
AcDbEntity
  8
0
  6
K5LT_BASIC
 62
     5
420
      255
370
    60
100
AcDbLine
 10
127.7704400135262
 20
-54.04236125272291
 30
0.0
 11
140.6809812120919
 21
-54.04236125272291
 31
0.0
  0
LINE
  5
1A7
330
1F
100
AcDbEntity
  8
0
  6
K5LT_BASIC
 62
     5
420
      255
370
    60
100
AcDbLine
 10
120.8422367832536
 20
-48.04236125272291
 30
0.0
 11
112.3063383983899
 21
-48.04236125272291
 31
0.0
  0
LINE
  5
1A8
330
1F
100
AcDbEntity
  8
0
  6
K5LT_BASIC
 62
     5
420
      255
370
    60
100
AcDbLine
 10
157.8711536516203
 20
-54.04236125273019
 30
0.0
 11
170.8422367832536
 21
-54.04236125273019
 31
0.0
  0
LINE
  5
1A9
330
1F
100
AcDbEntity
  8
0
  6
K5LT_BASIC
 62
     5
420
      255
370
    60
100
AcDbLine
 10
157.1658457288358
 20
-48.04236125272291
 30
0.0
 11
141.3862891348981
 21
-48.04236125272291
 31
0.0
  0
LINE
  5
1AA
330
1F
100
AcDbEntity
  8
0
  6
K5LT_BASIC
 62
     5
420
      255
370
    60
100
AcDbLine
 10
190.8408826851228
 20
-54.04236125272291
 30
0.0
 11
206.6204392790387
 21
-54.04236125272291
 31
0.0
  0
LINE
  5
1AB
330
1F
100
AcDbEntity
  8
0
  6
K5LT_BASIC
 62
     5
420
      255
370
    60
100
AcDbLine
 10
190.1355747622947
 20
-48.04236125272291
 30
0.0
 11
177.7704400135262
 21
-48.04236125272291
 31
0.0
  0
LINE
  5
1AC
330
1F
100
AcDbEntity
  8
0
  6
K5LT_BASIC
 62
     5
420
      255
370
    60
100
AcDbLine
 10
227.7704400135262
 20
-54.04236125272291
 30
0.0
 11
239.5901683125121
 21
-54.04236125272291
 31
0.0
  0
LINE
  5
1AD
330
1F
100
AcDbEntity
  8
0
  6
K5LT_BASIC
 62
     5
420
      255
370
    60
100
AcDbLine
 10
220.8422367832536
 20
-48.04236125272291
 30
0.0
 11
207.3257472018595
 21
-48.04236125272291
 31
0.0
  0
LINE
  5
1AE
330
1F
100
AcDbEntity
  8
0
  6
K5LT_BASIC
 62
     5
420
      255
370
    60
100
AcDbLine
 10
256.7803407520551
 20
-54.04236125272291
 30
0.0
 11
262.5060939911928
 21
-54.04236125272291
 31
0.0
  0
LINE
  5
1AF
330
1F
100
AcDbEntity
  8
0
  6
K5LT_BASIC
 62
     5
420
      255
370
    60
100
AcDbLine
 10
289.7500697855285
 20
-54.04236125272291
 30
0.0
 11
305.5296263794589
 21
-54.04236125272291
 31
0.0
  0
LINE
  5
1B0
330
1F
100
AcDbEntity
  8
0
  6
K5LT_BASIC
 62
     5
420
      255
370
    60
100
AcDbLine
 10
289.0447618627149
 20
-48.04236125272291
 30
0.0
 11
277.7704400135262
 21
-48.04236125272291
 31
0.0
  0
LINE
  5
1B1
330
1F
100
AcDbEntity
  8
0
  6
K5LT_BASIC
 62
     5
420
      255
370
    60
100
AcDbLine
 10
327.7704400135335
 20
-54.04236125272291
 30
0.0
 11
338.4993554129323
 21
-54.04236125272291
 31
0.0
  0
LINE
  5
1B2
330
1F
100
AcDbEntity
  8
0
  6
K5LT_BASIC
 62
     5
420
      255
370
    60
100
AcDbLine
 10
320.8422367832609
 20
-48.04236125272291
 30
0.0
 11
306.2349343022652
 21
-48.04236125272291
 31
0.0
  0
LINE
  5
1B3
330
1F
100
AcDbEntity
  8
0
  6
K5LT_BASIC
 62
     5
420
      255
370
    60
100
AcDbLine
 10
355.6895278524753
 20
-54.04236125272291
 30
0.0
 11
368.3063383983899
 21
-54.04236125272291
 31
0.0
  0
LINE
  5
1B4
330
1F
100
AcDbEntity
  8
0
  6
K5LT_BASIC
 62
     5
420
      255
370
    60
100
AcDbLine
 10
354.9842199296618
 20
-48.04236125272291
 30
0.0
 11
339.2046633357386
 21
-48.04236125272291
 31
0.0
  0
ARC
  5
1B5
330
1F
100
AcDbEntity
  8
0
  6
K5LT_BASIC
 62
     5
420
      255
370
    60
100
AcDbCircle
 10
112.3063383983899
 20
-53.04236125272291
 30
0.0
 40
1.0
100
AcDbArc
 50
180.0
 51
270.0
  0
ARC
  5
1B6
330
1F
100
AcDbEntity
  8
0
  6
K5LT_BASIC
 62
     5
420
      255
370
    60
100
AcDbCircle
 10
112.3063383983899
 20
-49.04236125272291
 30
0.0
 40
1.0
100
AcDbArc
 50
90.0
 51
180.0
  0
ARC
  5
1B7
330
1F
100
AcDbEntity
  8
0
  6
K5LT_BASIC
 62
     5
420
      255
370
    60
100
AcDbCircle
 10
140.6809812120919
 20
-53.04236125272291
 30
0.0
 40
1.0
100
AcDbArc
 50
270.0
 51
69.9999999999841
  0
ARC
  5
1B8
330
1F
100
AcDbEntity
  8
0
  6
K5LT_BASIC
 62
     5
420
      255
370
    60
100
AcDbCircle
 10
141.3862891348981
 20
-49.04236125272291
 30
0.0
 40
1.0
100
AcDbArc
 50
90.0
 51
249.9999999999841
  0
ARC
  5
1B9
330
1F
100
AcDbEntity
  8
0
  6
K5LT_BASIC
 62
     5
420
      255
370
    60
100
AcDbCircle
 10
157.1658457288286
 20
-49.04236125272291
 30
0.0
 40
1.000000000000007
100
AcDbArc
 50
290.0000000000159
 51
90.0
  0
ARC
  5
1BA
330
1F
100
AcDbEntity
  8
0
  6
K5LT_BASIC
 62
     5
420
      255
370
    60
100
AcDbCircle
 10
157.8711536516203
 20
-53.04236125273019
 30
0.0
 40
1.000000000000007
100
AcDbArc
 50
110.0000000000159
 51
270.0
  0
ARC
  5
1BB
330
1F
100
AcDbEntity
  8
0
  6
K5LT_BASIC
 62
     5
420
      255
370
    60
100
AcDbCircle
 10
132.7912029151266
 20
-50.17071679767105
 30
0.0
 40
1.000000000000007
100
AcDbArc
 50
69.99999999998408
 51
110.0000000000159
  0
ARC
  5
1BC
330
1F
100
AcDbEntity
  8
0
  6
K5LT_BASIC
 62
     5
420
      255
370
    60
100
AcDbCircle
 10
165.7609319486
 20
-50.17071679767105
 30
0.0
 40
1.000000000000006
100
AcDbArc
 50
69.99999999998418
 51
110.0000000000159
  0
ARC
  5
1BD
330
1F
100
AcDbEntity
  8
0
  6
K5LT_BASIC
 62
     5
420
      255
370
    60
100
AcDbCircle
 10
149.2760674318633
 20
-51.91400570777478
 30
0.0
 40
1.000000000000007
100
AcDbArc
 50
249.9999999999841
 51
290.000000000016
  0
ARC
  5
1BE
330
1F
100
AcDbEntity
  8
0
  6
K5LT_BASIC
 62
     5
420
      255
370
    60
100
AcDbCircle
 10
182.2457964653295
 20
-51.9140057077675
 30
0.0
 40
0.9999999999999885
100
AcDbArc
 50
249.9999999997347
 51
289.9999999998733
  0
ARC
  5
1BF
330
1F
100
AcDbEntity
  8
0
  6
K5LT_BASIC
 62
     5
420
      255
370
    60
100
AcDbCircle
 10
190.135574762302
 20
-49.04236125272291
 30
0.0
 40
1.000000000000006
100
AcDbArc
 50
290.0000000000158
 51
90.0
  0
ARC
  5
1C0
330
1F
100
AcDbEntity
  8
0
  6
K5LT_BASIC
 62
     5
420
      255
370
    60
100
AcDbCircle
 10
190.8408826851228
 20
-53.04236125272291
 30
0.0
 40
1.000000000000006
100
AcDbArc
 50
110.0000000000158
 51
270.0
  0
ARC
  5
1C1
330
1F
100
AcDbEntity
  8
0
  6
K5LT_BASIC
 62
     5
420
      255
370
    60
100
AcDbCircle
 10
206.6204392790387
 20
-53.04236125272291
 30
0.0
 40
1.0
100
AcDbArc
 50
270.0
 51
69.9999999999841
  0
ARC
  5
1C2
330
1F
100
AcDbEntity
  8
0
  6
K5LT_BASIC
 62
     5
420
      255
370
    60
100
AcDbCircle
 10
198.7306609820735
 20
-50.17071679767105
 30
0.0
 40
1.000000000000007
100
AcDbArc
 50
69.99999999998408
 51
110.0000000000159
  0
ARC
  5
1C3
330
1F
100
AcDbEntity
  8
0
  6
K5LT_BASIC
 62
     5
420
      255
370
    60
100
AcDbCircle
 10
207.3257472018595
 20
-49.04236125272291
 30
0.0
 40
1.0
100
AcDbArc
 50
90.0
 51
249.9999999999843
  0
ARC
  5
1C4
330
1F
100
AcDbEntity
  8
0
  6
K5LT_BASIC
 62
     5
420
      255
370
    60
100
AcDbCircle
 10
215.2155254988174
 20
-51.91400570777478
 30
0.0
 40
1.000000000000007
100
AcDbArc
 50
249.9999999999841
 51
290.000000000016
  0
ARC
  5
1C5
330
1F
100
AcDbEntity
  8
0
  6
K5LT_BASIC
 62
     5
420
      255
370
    60
100
AcDbCircle
 10
239.5901683125121
 20
-53.04236125272291
 30
0.0
 40
1.0
100
AcDbArc
 50
270.0
 51
69.9999999999841
  0
ARC
  5
1C6
330
1F
100
AcDbEntity
  8
0
  6
K5LT_BASIC
 62
     5
420
      255
370
    60
100
AcDbCircle
 10
231.7003900155469
 20
-50.17071679767105
 30
0.0
 40
1.000000000000007
100
AcDbArc
 50
69.99999999998408
 51
110.0000000000159
  0
ARC
  5
1C7
330
1F
100
AcDbEntity
  8
0
  6
K5LT_BASIC
 62
     5
420
      255
370
    60
100
AcDbCircle
 10
240.2954762353183
 20
-49.04236125272291
 30
0.0
 40
1.0
100
AcDbArc
 50
90.0
 51
249.9999999999841
  0
ARC
  5
1C8
330
1F
100
AcDbEntity
  8
0
  6
K5LT_BASIC
 62
     5
420
      255
370
    60
100
AcDbCircle
 10
256.0750328292415
 20
-49.04236125272291
 30
0.0
 40
1.000000000000005
100
AcDbArc
 50
290.0000000000156
 51
90.0
  0
ARC
  5
1C9
330
1F
100
AcDbEntity
  8
0
  6
K5LT_BASIC
 62
     5
420
      255
370
    60
100
AcDbCircle
 10
248.1852545322763
 20
-51.91400570777478
 30
0.0
 40
1.000000000000005
100
AcDbArc
 50
249.9999999999845
 51
290.0000000000156
  0
ARC
  5
1CA
330
1F
100
AcDbEntity
  8
0
  6
K5LT_BASIC
 62
     5
420
      255
370
    60
100
AcDbCircle
 10
256.7803407520551
 20
-53.04236125272291
 30
0.0
 40
1.000000000000005
100
AcDbArc
 50
110.0000000000155
 51
270.0
  0
ARC
  5
1CB
330
1F
100
AcDbEntity
  8
0
  6
K5LT_BASIC
 62
     5
420
      255
370
    60
100
AcDbCircle
 10
264.6701190490203
 20
-50.17071679767105
 30
0.0
 40
1.000000000000005
100
AcDbArc
 50
69.99999999998447
 51
110.0000000000155
  0
ARC
  5
1CC
330
1F
100
AcDbEntity
  8
0
  6
K5LT_BASIC
 62
     5
420
      255
370
    60
100
AcDbCircle
 10
289.0447618627149
 20
-49.04236125272291
 30
0.0
 40
1.000000000000005
100
AcDbArc
 50
290.0000000000156
 51
90.0
  0
ARC
  5
1CD
330
1F
100
AcDbEntity
  8
0
  6
K5LT_BASIC
 62
     5
420
      255
370
    60
100
AcDbCircle
 10
281.1549835657497
 20
-51.91400570777478
 30
0.0
 40
1.000000000000005
100
AcDbArc
 50
249.9999999999845
 51
290.0000000000156
  0
ARC
  5
1CE
330
1F
100
AcDbEntity
  8
0
  6
K5LT_BASIC
 62
     5
420
      255
370
    60
100
AcDbCircle
 10
289.7500697855285
 20
-53.04236125272291
 30
0.0
 40
1.000000000000005
100
AcDbArc
 50
110.0000000000155
 51
270.0
  0
ARC
  5
1CF
330
1F
100
AcDbEntity
  8
0
  6
K5LT_BASIC
 62
     5
420
      255
370
    60
100
AcDbCircle
 10
305.5296263794589
 20
-53.04236125272291
 30
0.0
 40
1.0
100
AcDbArc
 50
270.0
 51
69.99999999998445
  0
ARC
  5
1D0
330
1F
100
AcDbEntity
  8
0
  6
K5LT_BASIC
 62
     5
420
      255
370
    60
100
AcDbCircle
 10
297.6398480824937
 20
-50.17071679767105
 30
0.0
 40
1.000000000000005
100
AcDbArc
 50
69.99999999998447
 51
110.0000000000155
  0
ARC
  5
1D1
330
1F
100
AcDbEntity
  8
0
  6
K5LT_BASIC
 62
     5
420
      255
370
    60
100
AcDbCircle
 10
306.2349343022652
 20
-49.04236125272291
 30
0.0
 40
1.0
100
AcDbArc
 50
90.0
 51
249.9999999999845
  0
ARC
  5
1D2
330
1F
100
AcDbEntity
  8
0
  6
K5LT_BASIC
 62
     5
420
      255
370
    60
100
AcDbCircle
 10
314.1247125992231
 20
-51.91400570777478
 30
0.0
 40
1.000000000000005
100
AcDbArc
 50
249.9999999999845
 51
290.0000000000156
  0
ARC
  5
1D3
330
1F
100
AcDbEntity
  8
0
  6
K5LT_BASIC
 62
     5
420
      255
370
    60
100
AcDbCircle
 10
338.4993554129323
 20
-53.04236125272291
 30
0.0
 40
1.0
100
AcDbArc
 50
270.0
 51
69.99999999998445
  0
ARC
  5
1D4
330
1F
100
AcDbEntity
  8
0
  6
K5LT_BASIC
 62
     5
420
      255
370
    60
100
AcDbCircle
 10
330.6095771159671
 20
-50.17071679767105
 30
0.0
 40
1.000000000000005
100
AcDbArc
 50
69.99999999998447
 51
110.0000000000155
  0
ARC
  5
1D5
330
1F
100
AcDbEntity
  8
0
  6
K5LT_BASIC
 62
     5
420
      255
370
    60
100
AcDbCircle
 10
339.2046633357386
 20
-49.04236125272291
 30
0.0
 40
1.0
100
AcDbArc
 50
90.0
 51
249.9999999999845
  0
ARC
  5
1D6
330
1F
100
AcDbEntity
  8
0
  6
K5LT_BASIC
 62
     5
420
      255
370
    60
100
AcDbCircle
 10
354.9842199296691
 20
-49.04236125272291
 30
0.0
 40
1.000000000000005
100
AcDbArc
 50
290.0000000000156
 51
90.0
  0
ARC
  5
1D7
330
1F
100
AcDbEntity
  8
0
  6
K5LT_BASIC
 62
     5
420
      255
370
    60
100
AcDbCircle
 10
347.0944416326965
 20
-51.91400570777478
 30
0.0
 40
1.000000000000005
100
AcDbArc
 50
249.9999999999845
 51
290.0000000000156
  0
ARC
  5
1D8
330
1F
100
AcDbEntity
  8
0
  6
K5LT_BASIC
 62
     5
420
      255
370
    60
100
AcDbCircle
 10
355.6895278524753
 20
-53.04236125272291
 30
0.0
 40
1.000000000000005
100
AcDbArc
 50
110.0000000000155
 51
270.0
  0
ARC
  5
1D9
330
1F
100
AcDbEntity
  8
0
  6
K5LT_BASIC
 62
     5
420
      255
370
    60
100
AcDbCircle
 10
366.6794375302998
 20
-49.04236125272291
 30
0.0
 40
1.0
100
AcDbArc
 50
90.0
 51
110.0000000000155
  0
ARC
  5
1DA
330
1F
100
AcDbEntity
  8
0
  6
K5LT_BASIC
 62
     5
420
      255
370
    60
100
AcDbCircle
 10
368.3063383983899
 20
-49.04236125272291
 30
0.0
 40
1.0
100
AcDbArc
 50
0.0
 51
90.0
  0
ARC
  5
1DB
330
1F
100
AcDbEntity
  8
0
  6
K5LT_BASIC
 62
     5
420
      255
370
    60
100
AcDbCircle
 10
368.3063383983899
 20
-53.04236125272291
 30
0.0
 40
1.0
100
AcDbArc
 50
270.0
 51
0.0
  0
CIRCLE
  5
1DC
330
1F
100
AcDbEntity
  8
0
  6
K5LT_BASIC
 62
     5
420
      255
370
    60
100
AcDbCircle
 10
274.3063383983899
 20
-51.04236125272291
 30
0.0
 40
1.5
  0
CIRCLE
  5
1DD
330
1F
100
AcDbEntity
  8
0
  6
K5LT_BASIC
 62
     5
420
      255
370
    60
100
AcDbCircle
 10
324.3063383983899
 20
-51.04236125272291
 30
0.0
 40
1.5
  0
CIRCLE
  5
1DE
330
1F
100
AcDbEntity
  8
0
  6
K5LT_BASIC
 62
     5
420
      255
370
    60
100
AcDbCircle
 10
174.3063383983899
 20
-51.04236125272291
 30
0.0
 40
1.5
  0
CIRCLE
  5
1DF
330
1F
100
AcDbEntity
  8
0
  6
K5LT_BASIC
 62
     5
420
      255
370
    60
100
AcDbCircle
 10
224.3063383983899
 20
-51.04236125272291
 30
0.0
 40
1.5
  0
CIRCLE
  5
1E0
330
1F
100
AcDbEntity
  8
0
  6
K5LT_BASIC
 62
     5
420
      255
370
    60
100
AcDbCircle
 10
124.3063383983899
 20
-51.04236125272291
 30
0.0
 40
1.5
  0
ARC
  5
1E1
330
1F
100
AcDbEntity
  8
0
  6
K5LT_BASIC
 62
     5
420
      255
370
    60
100
AcDbCircle
 10
124.1961166953479
 20
-49.04236125272291
 30
0.0
 40
1.000000000000008
100
AcDbArc
 50
87.68803382834827
 51
90.0
  0
ARC
  5
1E2
330
1F
100
AcDbEntity
  8
0
  6
K5LT_BASIC
 62
     5
420
      255
370
    60
100
AcDbCircle
 10
124.3063383983899
 20
-51.04236125272291
 30
0.0
 40
2.999999999999994
100
AcDbArc
 50
329.9999999999899
 51
348.6188239024056
  0
ARC
  5
1E3
330
1F
100
AcDbEntity
  8
0
  6
K5LT_BASIC
 62
     5
420
      255
370
    60
100
AcDbCircle
 10
124.3063383983899
 20
-51.04236125272291
 30
0.0
 40
2.999999999999994
100
AcDbArc
 50
149.9999999999899
 51
171.3622109859045
  0
ARC
  5
1E4
330
1F
100
AcDbEntity
  8
0
  6
K5LT_BASIC
 62
     5
420
      255
370
    60
100
AcDbCircle
 10
174.3063383983899
 20
-51.04236125272291
 30
0.0
 40
2.999999999999998
100
AcDbArc
 50
8.300388610554048
 51
30.0000000000101
  0
ARC
  5
1E5
330
1F
100
AcDbEntity
  8
0
  6
K5LT_BASIC
 62
     5
420
      255
370
    60
100
AcDbCircle
 10
174.3560181683642
 20
-49.04236125272291
 30
0.0
 40
1.0
100
AcDbArc
 50
90.0
 51
91.04190899081976
  0
ARC
  5
1E6
330
1F
100
AcDbEntity
  8
0
  6
K5LT_BASIC
 62
     5
420
      255
370
    60
100
AcDbCircle
 10
174.3063383983899
 20
-51.04236125272291
 30
0.0
 40
3.0
100
AcDbArc
 50
191.7292425865734
 51
210.0000000001003
  0
ARC
  5
1E7
330
1F
100
AcDbEntity
  8
0
  6
K5LT_BASIC
 62
     5
420
      255
370
    60
100
AcDbCircle
 10
224.3063383983899
 20
-51.04236125272291
 30
0.0
 40
2.999999999999994
100
AcDbArc
 50
329.9999999999899
 51
354.6935787580336
  0
ARC
  5
1E8
330
1F
100
AcDbEntity
  8
0
  6
K5LT_BASIC
 62
     5
420
      255
370
    60
100
AcDbCircle
 10
224.3063383983899
 20
-51.04236125272291
 30
0.0
 40
2.999999999999994
100
AcDbArc
 50
149.9999999999899
 51
165.0724046123393
  0
ARC
  5
1E9
330
1F
100
AcDbEntity
  8
0
  6
K5LT_BASIC
 62
     5
420
      255
370
    60
100
AcDbCircle
 10
274.3063383983899
 20
-51.04236125272291
 30
0.0
 40
2.999999999999997
100
AcDbArc
 50
198.2559730793304
 51
210.0000000000101
  0
ARC
  5
1EA
330
1F
100
AcDbEntity
  8
0
  6
K5LT_BASIC
 62
     5
420
      255
370
    60
100
AcDbCircle
 10
274.3063383983899
 20
-51.04236125272291
 30
0.0
 40
2.999999999999998
100
AcDbArc
 50
2.38474390669254
 51
30.0000000000101
  0
ARC
  5
1EB
330
1F
100
AcDbEntity
  8
0
  6
K5LT_BASIC
 62
     5
420
      255
370
    60
100
AcDbCircle
 10
324.3063383983899
 20
-51.04236125272291
 30
0.0
 40
2.999999999999981
100
AcDbArc
 50
329.9999999999898
 51
0.4767596369901989
  0
ARC
  5
1EC
330
1F
100
AcDbEntity
  8
0
  6
K5LT_BASIC
 62
     5
420
      255
370
    60
100
AcDbCircle
 10
324.3063383983899
 20
-51.04236125272291
 30
0.0
 40
3.000000000000006
100
AcDbArc
 50
149.99999999999
 51
158.2554411298998
  0
ARC
  5
1ED
330
1F
100
AcDbEntity
  8
0
  6
K5LT_BASIC
 62
     5
420
      255
370
    60
100
AcDbCircle
 10
120.3517082341714
 20
-50.44161150095169
 30
0.0
 40
1.000000000000007
100
AcDbArc
 50
290.0000000000159
 51
351.3622109857134
  0
ARC
  5
1EE
330
1F
100
AcDbEntity
  8
0
  6
K5LT_BASIC
 62
     5
420
      255
370
    60
100
AcDbCircle
 10
120.8422367832536
 20
-49.04236125272291
 30
0.0
 40
0.9999999999999973
100
AcDbArc
 50
329.9999999999379
 51
90.0
  0
ARC
  5
1EF
330
1F
100
AcDbEntity
  8
0
  6
K5LT_BASIC
 62
     5
420
      255
370
    60
100
AcDbCircle
 10
127.7704400135262
 20
-53.04236125272291
 30
0.0
 40
0.9999999999999973
100
AcDbArc
 50
149.9999999999379
 51
270.0
  0
ARC
  5
1F0
330
1F
100
AcDbEntity
  8
0
  6
K5LT_BASIC
 62
     5
420
      255
370
    60
100
AcDbCircle
 10
128.2276826378948
 20
-51.83170234205318
 30
0.0
 40
1.000000000000007
100
AcDbArc
 50
110.0000000000159
 51
168.6188239021804
  0
ARC
  5
1F1
330
1F
100
AcDbEntity
  8
0
  6
K5LT_BASIC
 62
     5
420
      255
370
    60
100
AcDbCircle
 10
170.8422367832536
 20
-53.04236125273019
 30
0.0
 40
1.0
100
AcDbArc
 50
270.0
 51
30.00000000006215
  0
ARC
  5
1F2
330
1F
100
AcDbEntity
  8
0
  6
K5LT_BASIC
 62
     5
420
      255
370
    60
100
AcDbCircle
 10
170.3898616598817
 20
-51.85550942908594
 30
0.0
 40
0.9999999999999983
100
AcDbArc
 50
11.72924258651302
 51
69.99999999998417
  0
ARC
  5
1F3
330
1F
100
AcDbEntity
  8
0
  6
K5LT_BASIC
 62
     5
420
      255
370
    60
100
AcDbCircle
 10
177.7704400135262
 20
-49.04236125272291
 30
0.0
 40
1.0
100
AcDbArc
 50
90.0
 51
210.0000000000621
  0
ARC
  5
1F4
330
1F
100
AcDbEntity
  8
0
  6
K5LT_BASIC
 62
     5
420
      255
370
    60
100
AcDbCircle
 10
178.2644376381722
 20
-50.46490960276424
 30
0.0
 40
1.000000000000002
100
AcDbArc
 50
188.3003886106281
 51
249.9999999999842
  0
ARC
  5
1F5
330
1F
100
AcDbEntity
  8
0
  6
K5LT_BASIC
 62
     5
420
      255
370
    60
100
AcDbCircle
 10
220.441329901274
 20
-50.0119684551828
 30
0.0
 40
1.000000000000007
100
AcDbArc
 50
290.0000000000159
 51
345.0724046122377
  0
ARC
  5
1F6
330
1F
100
AcDbEntity
  8
0
  6
K5LT_BASIC
 62
     5
420
      255
370
    60
100
AcDbCircle
 10
220.8422367832536
 20
-49.04236125272291
 30
0.0
 40
0.9999999999999973
100
AcDbArc
 50
329.9999999999379
 51
90.0
  0
ARC
  5
1F7
330
1F
100
AcDbEntity
  8
0
  6
K5LT_BASIC
 62
     5
420
      255
370
    60
100
AcDbCircle
 10
227.7704400135262
 20
-53.04236125272291
 30
0.0
 40
0.9999999999999973
100
AcDbArc
 50
149.9999999999379
 51
270.0
  0
ARC
  5
1F8
330
1F
100
AcDbEntity
  8
0
  6
K5LT_BASIC
 62
     5
420
      255
370
    60
100
AcDbCircle
 10
228.2891957575557
 20
-51.41228997088183
 30
0.0
 40
1.000000000000007
100
AcDbArc
 50
110.0000000000159
 51
174.6935787579289
  0
ARC
  5
1F9
330
1F
100
AcDbEntity
  8
0
  6
K5LT_BASIC
 62
     5
420
      255
370
    60
100
AcDbCircle
 10
270.8422367832536
 20
-53.04236125272291
 30
0.0
 40
1.0
100
AcDbArc
 50
270.0
 51
30.00000000006215
  0
ARC
  5
1FA
330
1F
100
AcDbEntity
  8
0
  6
K5LT_BASIC
 62
     5
420
      255
370
    60
100
AcDbCircle
 10
270.5076725034087
 20
-52.29541249600879
 30
0.0
 40
1.000000000000004
100
AcDbArc
 50
18.25597307933039
 51
69.9999999999845
  0
ARC
  5
1FB
330
1F
100
AcDbEntity
  8
0
  6
K5LT_BASIC
 62
     5
420
      255
370
    60
100
AcDbCircle
 10
277.7704400135262
 20
-49.04236125272291
 30
0.0
 40
1.0
100
AcDbArc
 50
90.0
 51
210.0000000000621
  0
ARC
  5
1FC
330
1F
100
AcDbEntity
  8
0
  6
K5LT_BASIC
 62
     5
420
      255
370
    60
100
AcDbCircle
 10
278.3028741778762
 20
-50.87592278571537
 30
0.0
 40
0.9999999999999931
100
AcDbArc
 50
182.3847439067881
 51
249.9999999999845
  0
ARC
  5
1FD
330
1F
100
AcDbEntity
  8
0
  6
K5LT_BASIC
 62
     5
420
      255
370
    60
100
AcDbCircle
 10
320.5909594427721
 20
-49.56048432931129
 30
0.0
 40
1.000000000000005
100
AcDbArc
 50
290.0000000000156
 51
338.2554411298998
  0
ARC
  5
1FE
330
1F
100
AcDbEntity
  8
0
  6
K5LT_BASIC
 62
     5
420
      255
370
    60
100
AcDbCircle
 10
320.8422367832536
 20
-49.04236125272291
 30
0.0
 40
0.9999999999999849
100
AcDbArc
 50
329.9999999999374
 51
90.0
  0
ARC
  5
1FF
330
1F
100
AcDbEntity
  8
0
  6
K5LT_BASIC
 62
     5
420
      255
370
    60
100
AcDbCircle
 10
327.7704400135262
 20
-53.04236125272291
 30
0.0
 40
1.00000000000001
100
AcDbArc
 50
149.9999999999383
 51
270.0
  0
ARC
  5
200
330
1F
100
AcDbEntity
  8
0
  6
K5LT_BASIC
 62
     5
420
      255
370
    60
100
AcDbCircle
 10
328.3061999202619
 20
-51.00907753519277
 30
0.0
 40
1.000000000000005
100
AcDbArc
 50
110.0000000000155
 51
180.4767596368843
  0
LINE
  5
201
330
1F
100
AcDbEntity
  8
0
  6
K5LT_BASIC
 62
     5
420
      255
370
    60
100
AcDbLine
 10
48.04999999999563
 20
73.55763874726836
 30
0.0
 11
48.04999999999563
 21
81.55763874726836
 31
0.0
  0
LINE
  5
202
330
1F
100
AcDbEntity
  8
0
  6
K5LT_BASIC
 62
     5
420
      255
370
    60
100
AcDbLine
 10
48.04999999999563
 20
81.55763874726836
 30
0.0
 11
44.47509075456765
 21
81.55763874726836
 31
0.0
  0
LINE
  5
203
330
1F
100
AcDbEntity
  8
0
  6
K5LT_BASIC
 62
     5
420
      255
370
    60
100
AcDbLine
 10
44.47509075456765
 20
81.55763874726836
 30
0.0
 11
40.44142655807809
 21
80.98255775478901
 31
0.0
  0
ARC
  5
204
330
1F
100
AcDbEntity
  8
0
  6
K5LT_BASIC
 62
     5
420
      255
370
    60
100
AcDbCircle
 10
41.49999999998545
 20
73.55763874726836
 30
0.0
 40
7.500000000007272
100
AcDbArc
 50
98.11399938906256
 51
261.8860006111744
  0
LINE
  5
205
330
1F
100
AcDbEntity
  8
0
  6
K5LT_BASIC
 62
     5
420
      255
370
    60
100
AcDbLine
 10
40.4414265581072
 20
66.1327197397477
 30
0.0
 11
44.47509075457492
 21
65.55763874726836
 31
0.0
  0
LINE
  5
206
330
1F
100
AcDbEntity
  8
0
  6
K5LT_BASIC
 62
     5
420
      255
370
    60
100
AcDbLine
 10
44.47509075457492
 20
65.55763874726836
 30
0.0
 11
50.49999999999272
 21
65.55763874726836
 31
0.0
  0
LINE
  5
207
330
1F
100
AcDbEntity
  8
0
  6
K5LT_BASIC
 62
     5
420
      255
370
    60
100
AcDbLine
 10
50.49999999999272
 20
65.55763874726836
 30
0.0
 11
53.5249092454178
 21
65.55763874726836
 31
0.0
  0
LINE
  5
208
330
1F
100
AcDbEntity
  8
0
  6
K5LT_BASIC
 62
     5
420
      255
370
    60
100
AcDbLine
 10
53.5249092454178
 20
65.55763874726836
 30
0.0
 11
57.55857344187825
 21
66.1327197397477
 31
0.0
  0
ARC
  5
209
330
1F
100
AcDbEntity
  8
0
  6
K5LT_BASIC
 62
     5
420
      255
370
    60
100
AcDbCircle
 10
56.49999999999272
 20
73.55763874726836
 30
0.0
 40
7.500000000007272
100
AcDbArc
 50
278.1139993888818
 51
81.88600061099362
  0
LINE
  5
20A
330
1F
100
AcDbEntity
  8
0
  6
K5LT_BASIC
 62
     5
420
      255
370
    60
100
AcDbLine
 10
57.5585734418928
 20
80.98255775478901
 30
0.0
 11
53.5249092454178
 21
81.55763874726836
 31
0.0
  0
LINE
  5
20B
330
1F
100
AcDbEntity
  8
0
  6
K5LT_BASIC
 62
     5
420
      255
370
    60
100
AcDbLine
 10
53.5249092454178
 20
81.55763874726836
 30
0.0
 11
49.94999999998254
 21
81.55763874726836
 31
0.0
  0
LINE
  5
20C
330
1F
100
AcDbEntity
  8
0
  6
K5LT_BASIC
 62
     5
420
      255
370
    60
100
AcDbLine
 10
49.94999999998254
 20
81.55763874726836
 30
0.0
 11
49.94999999998981
 21
73.55763874726836
 31
0.0
  0
LINE
  5
20D
330
1F
100
AcDbEntity
  8
0
  6
K5LT_BASIC
 62
     5
420
      255
370
    60
100
AcDbLine
 10
49.94999999998981
 20
73.55763874726836
 30
0.0
 11
48.04999999999563
 21
73.55763874726836
 31
0.0
  0
CIRCLE
  5
20E
330
1F
100
AcDbEntity
  8
0
  6
K5LT_BASIC
 62
     5
420
      255
370
    60
100
AcDbCircle
 10
41.49999999999272
 20
73.55763874726836
 30
0.0
 40
4.45
  0
CIRCLE
  5
20F
330
1F
100
AcDbEntity
  8
0
  6
K5LT_BASIC
 62
     5
420
      255
370
    60
100
AcDbCircle
 10
56.49999999999272
 20
73.55763874726836
 30
0.0
 40
4.45
  0
LINE
  5
210
330
1F
100
AcDbEntity
  8
0
  6
K5LT_BASIC
 62
     5
420
      255
370
    60
100
AcDbLine
 10
8.049999999995638
 20
73.55763874726836
 30
0.0
 11
8.049999999995638
 21
81.55763874726836
 31
0.0
  0
LINE
  5
211
330
1F
100
AcDbEntity
  8
0
  6
K5LT_BASIC
 62
     5
420
      255
370
    60
100
AcDbLine
 10
8.049999999995638
 20
81.55763874726836
 30
0.0
 11
4.475090754567649
 21
81.55763874726836
 31
0.0
  0
LINE
  5
212
330
1F
100
AcDbEntity
  8
0
  6
K5LT_BASIC
 62
     5
420
      255
370
    60
100
AcDbLine
 10
4.475090754567649
 20
81.55763874726836
 30
0.0
 11
0.4414265580780956
 21
80.98255775478901
 31
0.0
  0
ARC
  5
213
330
1F
100
AcDbEntity
  8
0
  6
K5LT_BASIC
 62
     5
420
      255
370
    60
100
AcDbCircle
 10
1.499999999985452
 20
73.55763874726836
 30
0.0
 40
7.50000000000729
100
AcDbArc
 50
98.11399938906384
 51
261.8860006111726
  0
LINE
  5
214
330
1F
100
AcDbEntity
  8
0
  6
K5LT_BASIC
 62
     5
420
      255
370
    60
100
AcDbLine
 10
0.4414265581071994
 20
66.1327197397477
 30
0.0
 11
4.475090754574925
 21
65.55763874726836
 31
0.0
  0
LINE
  5
215
330
1F
100
AcDbEntity
  8
0
  6
K5LT_BASIC
 62
     5
420
      255
370
    60
100
AcDbLine
 10
4.475090754574925
 20
65.55763874726836
 30
0.0
 11
10.49999999999273
 21
65.55763874726836
 31
0.0
  0
LINE
  5
216
330
1F
100
AcDbEntity
  8
0
  6
K5LT_BASIC
 62
     5
420
      255
370
    60
100
AcDbLine
 10
10.49999999999273
 20
65.55763874726836
 30
0.0
 11
13.52490924541781
 21
65.55763874726836
 31
0.0
  0
LINE
  5
217
330
1F
100
AcDbEntity
  8
0
  6
K5LT_BASIC
 62
     5
420
      255
370
    60
100
AcDbLine
 10
13.52490924541781
 20
65.55763874726836
 30
0.0
 11
17.55857344187826
 21
66.1327197397477
 31
0.0
  0
ARC
  5
218
330
1F
100
AcDbEntity
  8
0
  6
K5LT_BASIC
 62
     5
420
      255
370
    60
100
AcDbCircle
 10
16.49999999999273
 20
73.55763874726836
 30
0.0
 40
7.500000000007289
100
AcDbArc
 50
278.1139993888835
 51
81.8860006109923
  0
LINE
  5
219
330
1F
100
AcDbEntity
  8
0
  6
K5LT_BASIC
 62
     5
420
      255
370
    60
100
AcDbLine
 10
17.55857344189281
 20
80.98255775478901
 30
0.0
 11
13.52490924541781
 21
81.55763874726836
 31
0.0
  0
LINE
  5
21A
330
1F
100
AcDbEntity
  8
0
  6
K5LT_BASIC
 62
     5
420
      255
370
    60
100
AcDbLine
 10
13.52490924541781
 20
81.55763874726836
 30
0.0
 11
9.949999999982541
 21
81.55763874726836
 31
0.0
  0
LINE
  5
21B
330
1F
100
AcDbEntity
  8
0
  6
K5LT_BASIC
 62
     5
420
      255
370
    60
100
AcDbLine
 10
9.949999999982541
 20
81.55763874726836
 30
0.0
 11
9.949999999989817
 21
73.55763874726836
 31
0.0
  0
LINE
  5
21C
330
1F
100
AcDbEntity
  8
0
  6
K5LT_BASIC
 62
     5
420
      255
370
    60
100
AcDbLine
 10
9.949999999989817
 20
73.55763874726836
 30
0.0
 11
8.049999999995638
 21
73.55763874726836
 31
0.0
  0
CIRCLE
  5
21D
330
1F
100
AcDbEntity
  8
0
  6
K5LT_BASIC
 62
     5
420
      255
370
    60
100
AcDbCircle
 10
1.499999999992728
 20
73.55763874726836
 30
0.0
 40
4.45
  0
CIRCLE
  5
21E
330
1F
100
AcDbEntity
  8
0
  6
K5LT_BASIC
 62
     5
420
      255
370
    60
100
AcDbCircle
 10
16.49999999999273
 20
73.55763874726836
 30
0.0
 40
4.45
  0
LINE
  5
21F
330
1F
100
AcDbEntity
  8
0
  6
K5LT_BASIC
 62
     5
420
      255
370
    60
100
AcDbLine
 10
88.04999999999563
 20
73.55763874726836
 30
0.0
 11
88.04999999999563
 21
81.55763874726836
 31
0.0
  0
LINE
  5
220
330
1F
100
AcDbEntity
  8
0
  6
K5LT_BASIC
 62
     5
420
      255
370
    60
100
AcDbLine
 10
88.04999999999563
 20
81.55763874726836
 30
0.0
 11
84.47509075456765
 21
81.55763874726836
 31
0.0
  0
LINE
  5
221
330
1F
100
AcDbEntity
  8
0
  6
K5LT_BASIC
 62
     5
420
      255
370
    60
100
AcDbLine
 10
84.47509075456765
 20
81.55763874726836
 30
0.0
 11
80.44142655807809
 21
80.98255775478901
 31
0.0
  0
ARC
  5
222
330
1F
100
AcDbEntity
  8
0
  6
K5LT_BASIC
 62
     5
420
      255
370
    60
100
AcDbCircle
 10
81.49999999998545
 20
73.55763874726836
 30
0.0
 40
7.500000000007272
100
AcDbArc
 50
98.11399938906256
 51
261.8860006111744
  0
LINE
  5
223
330
1F
100
AcDbEntity
  8
0
  6
K5LT_BASIC
 62
     5
420
      255
370
    60
100
AcDbLine
 10
80.4414265581072
 20
66.1327197397477
 30
0.0
 11
84.47509075457492
 21
65.55763874726836
 31
0.0
  0
LINE
  5
224
330
1F
100
AcDbEntity
  8
0
  6
K5LT_BASIC
 62
     5
420
      255
370
    60
100
AcDbLine
 10
84.47509075457492
 20
65.55763874726836
 30
0.0
 11
90.49999999999272
 21
65.55763874726836
 31
0.0
  0
LINE
  5
225
330
1F
100
AcDbEntity
  8
0
  6
K5LT_BASIC
 62
     5
420
      255
370
    60
100
AcDbLine
 10
90.49999999999272
 20
65.55763874726836
 30
0.0
 11
93.5249092454178
 21
65.55763874726836
 31
0.0
  0
LINE
  5
226
330
1F
100
AcDbEntity
  8
0
  6
K5LT_BASIC
 62
     5
420
      255
370
    60
100
AcDbLine
 10
93.5249092454178
 20
65.55763874726836
 30
0.0
 11
97.55857344187825
 21
66.1327197397477
 31
0.0
  0
ARC
  5
227
330
1F
100
AcDbEntity
  8
0
  6
K5LT_BASIC
 62
     5
420
      255
370
    60
100
AcDbCircle
 10
96.49999999999272
 20
73.55763874726836
 30
0.0
 40
7.500000000007272
100
AcDbArc
 50
278.1139993888818
 51
81.88600061099362
  0
LINE
  5
228
330
1F
100
AcDbEntity
  8
0
  6
K5LT_BASIC
 62
     5
420
      255
370
    60
100
AcDbLine
 10
97.5585734418928
 20
80.98255775478901
 30
0.0
 11
93.5249092454178
 21
81.55763874726836
 31
0.0
  0
LINE
  5
229
330
1F
100
AcDbEntity
  8
0
  6
K5LT_BASIC
 62
     5
420
      255
370
    60
100
AcDbLine
 10
93.5249092454178
 20
81.55763874726836
 30
0.0
 11
89.94999999998254
 21
81.55763874726836
 31
0.0
  0
LINE
  5
22A
330
1F
100
AcDbEntity
  8
0
  6
K5LT_BASIC
 62
     5
420
      255
370
    60
100
AcDbLine
 10
89.94999999998254
 20
81.55763874726836
 30
0.0
 11
89.94999999998981
 21
73.55763874726836
 31
0.0
  0
LINE
  5
22B
330
1F
100
AcDbEntity
  8
0
  6
K5LT_BASIC
 62
     5
420
      255
370
    60
100
AcDbLine
 10
89.94999999998981
 20
73.55763874726836
 30
0.0
 11
88.04999999999563
 21
73.55763874726836
 31
0.0
  0
CIRCLE
  5
22C
330
1F
100
AcDbEntity
  8
0
  6
K5LT_BASIC
 62
     5
420
      255
370
    60
100
AcDbCircle
 10
81.49999999999272
 20
73.55763874726836
 30
0.0
 40
4.45
  0
CIRCLE
  5
22D
330
1F
100
AcDbEntity
  8
0
  6
K5LT_BASIC
 62
     5
420
      255
370
    60
100
AcDbCircle
 10
96.49999999999272
 20
73.55763874726836
 30
0.0
 40
4.45
  0
LINE
  5
22E
330
1F
100
AcDbEntity
  8
0
  6
K5LT_BASIC
 62
     5
420
      255
370
    60
100
AcDbLine
 10
128.0499999999956
 20
73.55763874726836
 30
0.0
 11
128.0499999999956
 21
81.55763874726836
 31
0.0
  0
LINE
  5
22F
330
1F
100
AcDbEntity
  8
0
  6
K5LT_BASIC
 62
     5
420
      255
370
    60
100
AcDbLine
 10
128.0499999999956
 20
81.55763874726836
 30
0.0
 11
124.4750907545676
 21
81.55763874726836
 31
0.0
  0
LINE
  5
230
330
1F
100
AcDbEntity
  8
0
  6
K5LT_BASIC
 62
     5
420
      255
370
    60
100
AcDbLine
 10
124.4750907545676
 20
81.55763874726836
 30
0.0
 11
120.4414265580781
 21
80.98255775478901
 31
0.0
  0
ARC
  5
231
330
1F
100
AcDbEntity
  8
0
  6
K5LT_BASIC
 62
     5
420
      255
370
    60
100
AcDbCircle
 10
121.4999999999854
 20
73.55763874726836
 30
0.0
 40
7.500000000007272
100
AcDbArc
 50
98.11399938906256
 51
261.8860006111744
  0
LINE
  5
232
330
1F
100
AcDbEntity
  8
0
  6
K5LT_BASIC
 62
     5
420
      255
370
    60
100
AcDbLine
 10
120.4414265581072
 20
66.1327197397477
 30
0.0
 11
124.4750907545749
 21
65.55763874726836
 31
0.0
  0
LINE
  5
233
330
1F
100
AcDbEntity
  8
0
  6
K5LT_BASIC
 62
     5
420
      255
370
    60
100
AcDbLine
 10
124.4750907545749
 20
65.55763874726836
 30
0.0
 11
130.4999999999927
 21
65.55763874726836
 31
0.0
  0
LINE
  5
234
330
1F
100
AcDbEntity
  8
0
  6
K5LT_BASIC
 62
     5
420
      255
370
    60
100
AcDbLine
 10
130.4999999999927
 20
65.55763874726836
 30
0.0
 11
133.5249092454178
 21
65.55763874726836
 31
0.0
  0
LINE
  5
235
330
1F
100
AcDbEntity
  8
0
  6
K5LT_BASIC
 62
     5
420
      255
370
    60
100
AcDbLine
 10
133.5249092454178
 20
65.55763874726836
 30
0.0
 11
137.5585734418783
 21
66.1327197397477
 31
0.0
  0
ARC
  5
236
330
1F
100
AcDbEntity
  8
0
  6
K5LT_BASIC
 62
     5
420
      255
370
    60
100
AcDbCircle
 10
136.4999999999927
 20
73.55763874726836
 30
0.0
 40
7.500000000007272
100
AcDbArc
 50
278.1139993888818
 51
81.88600061099362
  0
LINE
  5
237
330
1F
100
AcDbEntity
  8
0
  6
K5LT_BASIC
 62
     5
420
      255
370
    60
100
AcDbLine
 10
137.5585734418928
 20
80.98255775478901
 30
0.0
 11
133.5249092454178
 21
81.55763874726836
 31
0.0
  0
LINE
  5
238
330
1F
100
AcDbEntity
  8
0
  6
K5LT_BASIC
 62
     5
420
      255
370
    60
100
AcDbLine
 10
133.5249092454178
 20
81.55763874726836
 30
0.0
 11
129.9499999999825
 21
81.55763874726836
 31
0.0
  0
LINE
  5
239
330
1F
100
AcDbEntity
  8
0
  6
K5LT_BASIC
 62
     5
420
      255
370
    60
100
AcDbLine
 10
129.9499999999825
 20
81.55763874726836
 30
0.0
 11
129.9499999999898
 21
73.55763874726836
 31
0.0
  0
LINE
  5
23A
330
1F
100
AcDbEntity
  8
0
  6
K5LT_BASIC
 62
     5
420
      255
370
    60
100
AcDbLine
 10
129.9499999999898
 20
73.55763874726836
 30
0.0
 11
128.0499999999956
 21
73.55763874726836
 31
0.0
  0
CIRCLE
  5
23B
330
1F
100
AcDbEntity
  8
0
  6
K5LT_BASIC
 62
     5
420
      255
370
    60
100
AcDbCircle
 10
121.4999999999927
 20
73.55763874726836
 30
0.0
 40
4.45
  0
CIRCLE
  5
23C
330
1F
100
AcDbEntity
  8
0
  6
K5LT_BASIC
 62
     5
420
      255
370
    60
100
AcDbCircle
 10
136.4999999999927
 20
73.55763874726836
 30
0.0
 40
4.45
  0
INSERT
  5
23E
330
1F
100
AcDbEntity
  8
0
100
AcDbBlockReference
  2
U0
 10
0.0
 20
0.0
 30
0.0
  0
INSERT
  5
244
330
1F
100
AcDbEntity
  8
0
100
AcDbBlockReference
  2
U1
 10
0.0
 20
0.0
 30
0.0
  0
INSERT
  5
24A
330
1F
100
AcDbEntity
  8
0
100
AcDbBlockReference
  2
U2
 10
0.0
 20
0.0
 30
0.0
  0
INSERT
  5
250
330
1F
100
AcDbEntity
  8
0
100
AcDbBlockReference
  2
U3
 10
0.0
 20
0.0
 30
0.0
  0
INSERT
  5
256
330
1F
100
AcDbEntity
  8
0
100
AcDbBlockReference
  2
U4
 10
0.0
 20
0.0
 30
0.0
  0
INSERT
  5
25C
330
1F
100
AcDbEntity
  8
0
100
AcDbBlockReference
  2
U5
 10
0.0
 20
0.0
 30
0.0
  0
INSERT
  5
262
330
1F
100
AcDbEntity
  8
0
100
AcDbBlockReference
  2
U6
 10
0.0
 20
0.0
 30
0.0
  0
INSERT
  5
268
330
1F
100
AcDbEntity
  8
0
100
AcDbBlockReference
  2
U7
 10
0.0
 20
0.0
 30
0.0
  0
INSERT
  5
26E
330
1F
100
AcDbEntity
  8
0
100
AcDbBlockReference
  2
U8
 10
0.0
 20
0.0
 30
0.0
  0
INSERT
  5
274
330
1F
100
AcDbEntity
  8
0
100
AcDbBlockReference
  2
U9
 10
0.0
 20
0.0
 30
0.0
  0
INSERT
  5
27A
330
1F
100
AcDbEntity
  8
0
100
AcDbBlockReference
  2
U10
 10
0.0
 20
0.0
 30
0.0
  0
INSERT
  5
280
330
1F
100
AcDbEntity
  8
0
100
AcDbBlockReference
  2
U11
 10
0.0
 20
0.0
 30
0.0
  0
INSERT
  5
286
330
1F
100
AcDbEntity
  8
0
100
AcDbBlockReference
  2
U12
 10
0.0
 20
0.0
 30
0.0
  0
INSERT
  5
28C
330
1F
100
AcDbEntity
  8
0
100
AcDbBlockReference
  2
U13
 10
0.0
 20
0.0
 30
0.0
  0
INSERT
  5
292
330
1F
100
AcDbEntity
  8
0
100
AcDbBlockReference
  2
U14
 10
0.0
 20
0.0
 30
0.0
  0
INSERT
  5
298
330
1F
100
AcDbEntity
  8
0
100
AcDbBlockReference
  2
U15
 10
0.0
 20
0.0
 30
0.0
  0
INSERT
  5
2E2
330
1F
100
AcDbEntity
  8
0
100
AcDbBlockReference
  2
U16
 10
0.0
 20
0.0
 30
0.0
  0
INSERT
  5
32C
330
1F
100
AcDbEntity
  8
0
100
AcDbBlockReference
  2
U17
 10
0.0
 20
0.0
 30
0.0
  0
INSERT
  5
56C
330
1F
100
AcDbEntity
  8
0
100
AcDbBlockReference
  2
U34
 10
0.0
 20
0.0
 30
0.0
  0
ENDSEC
  0
SECTION
  2
OBJECTS
  0
DICTIONARY
  5
C
330
0
100
AcDbDictionary
281
     1
  3
ACAD_DETAILVIEWSTYLE
350
59D
  3
ACAD_GROUP
350
D
  3
ACAD_LAYOUT
350
1A
  3
ACAD_MATERIAL
350
43
  3
ACAD_MLEADERSTYLE
350
6B
  3
ACAD_MLINESTYLE
350
17
  3
ACAD_PLOTSETTINGS
350
19
  3
ACAD_PLOTSTYLENAME
350
E
  3
ACAD_SCALELIST
350
47
  3
ACAD_SECTIONVIEWSTYLE
350
59E
  3
ACAD_TABLESTYLE
350
69
  3
ACAD_VISUALSTYLE
350
2A
  3
ACDB_RECOMPOSE_DATA
350
59A
  3
AcDbVariableDictionary
350
596
  0
SUN
  5
6D
330
29
100
AcDbSun
 90
        1
290
     0
 63
     7
421
 16777215
 40
1.0
291
     1
 91
  2455826
 92
 54000000
292
     0
 70
     2
 71
   256
280
     1
  0
DICTIONARY
  5
59D
102
{ACAD_REACTORS
330
C
102
}
330
C
100
AcDbDictionary
281
     1
  0
DICTIONARY
  5
D
102
{ACAD_REACTORS
330
C
102
}
330
C
100
AcDbDictionary
281
     1
  0
DICTIONARY
  5
1A
102
{ACAD_REACTORS
330
C
102
}
330
C
100
AcDbDictionary
281
     1
  3
Layout1
350
1E
  3
Layout2
350
26
  3
Model
350
22
  0
DICTIONARY
  5
43
102
{ACAD_REACTORS
330
C
102
}
330
C
100
AcDbDictionary
281
     1
  3
ByBlock
350
45
  3
ByLayer
350
44
  3
Global
350
46
  0
DICTIONARY
  5
6B
102
{ACAD_REACTORS
330
C
102
}
330
C
100
AcDbDictionary
281
     1
  3
Standard
350
6C
  0
DICTIONARY
  5
17
102
{ACAD_REACTORS
330
C
102
}
330
C
100
AcDbDictionary
281
     1
  3
Standard
350
18
  0
DICTIONARY
  5
19
102
{ACAD_REACTORS
330
C
102
}
330
C
100
AcDbDictionary
281
     1
  0
ACDBDICTIONARYWDFLT
  5
E
102
{ACAD_REACTORS
330
C
102
}
330
C
100
AcDbDictionary
281
     1
  3
Normal
350
F
100
AcDbDictionaryWithDefault
340
F
  0
DICTIONARY
  5
47
102
{ACAD_REACTORS
330
C
102
}
330
C
100
AcDbDictionary
281
     1
  3
A0
350
48
  3
A1
350
49
  3
A2
350
4A
  3
A3
350
4B
  3
A4
350
4C
  3
A5
350
4D
  3
A6
350
4E
  3
A7
350
4F
  3
A8
350
50
  3
A9
350
51
  3
B0
350
52
  3
B1
350
53
  3
B2
350
54
  3
B3
350
55
  3
B4
350
56
  3
B5
350
57
  3
B6
350
58
  3
B7
350
59
  3
B8
350
5A
  3
B9
350
5B
  3
C0
350
5C
  3
C1
350
5D
  3
C2
350
5E
  3
C3
350
5F
  3
C4
350
60
  3
C5
350
61
  3
C6
350
62
  3
C7
350
63
  3
C8
350
64
  3
C9
350
65
  3
D0
350
66
  3
D1
350
67
  3
D2
350
68
  0
DICTIONARY
  5
59E
102
{ACAD_REACTORS
330
C
102
}
330
C
100
AcDbDictionary
281
     1
  0
DICTIONARY
  5
69
102
{ACAD_REACTORS
330
C
102
}
330
C
100
AcDbDictionary
281
     1
  3
Standard
350
6A
  0
DICTIONARY
  5
2A
102
{ACAD_REACTORS
330
C
102
}
330
C
100
AcDbDictionary
281
     1
  3
2dWireframe
350
2F
  3
Basic
350
32
  3
Brighten
350
36
  3
ColorChange
350
3A
  3
Conceptual
350
34
  3
Dim
350
35
  3
EdgeColorOff
350
3D
  3
Facepattern
350
39
  3
Flat
350
2B
  3
FlatWithEdges
350
2C
  3
Gouraud
350
2D
  3
GouraudWithEdges
350
2E
  3
Hidden
350
31
  3
JitterOff
350
3B
  3
Linepattern
350
38
  3
OverhangOff
350
3C
  3
Realistic
350
33
  3
Shaded
350
42
  3
Shaded with edges
350
41
  3
Shades of Gray
350
3E
  3
Sketchy
350
3F
  3
Thicken
350
37
  3
Wireframe
350
30
  3
X-Ray
350
40
  0
XRECORD
  5
59A
102
{ACAD_REACTORS
330
C
102
}
330
C
100
AcDbXrecord
280
     1
 90
        1
330
6A
  0
DICTIONARY
  5
596
102
{ACAD_REACTORS
330
C
102
}
330
C
100
AcDbDictionary
281
     1
  3
CANNOSCALE
350
597
  3
CENTEREXE
350
5A0
  3
CENTERLTYPEFILE
350
5A1
  3
CMLEADERSTYLE
350
59C
  3
CTABLESTYLE
350
59B
  3
WIPEOUTFRAME
350
59F
  0
LAYOUT
  5
1E
102
{ACAD_REACTORS
330
1A
102
}
330
1A
100
AcDbPlotSettings
  1

  2
none_device
  4

  6

 40
0.0
 41
0.0
 42
0.0
 43
0.0
 44
0.0
 45
0.0
 46
0.0
 47
0.0
 48
0.0
 49
0.0
140
0.0
141
0.0
142
1.0
143
1.0
 70
   688
 72
     1
 73
     0
 74
     5
  7

 75
    16
 76
     0
 77
     2
 78
   300
147
1.0
148
0.0
149
0.0
100
AcDbLayout
  1
Layout1
 70
     1
 71
     1
 10
0.0
 20
0.0
 11
420.0
 21
297.0
 12
0.0
 22
0.0
 32
0.0
 14
1.000000000000000E+20
 24
1.000000000000000E+20
 34
1.000000000000000E+20
 15
-1.000000000000000E+20
 25
-1.000000000000000E+20
 35
-1.000000000000000E+20
146
0.0
 13
0.0
 23
0.0
 33
0.0
 16
1.0
 26
0.0
 36
0.0
 17
0.0
 27
1.0
 37
0.0
 76
     0
330
1B
  0
LAYOUT
  5
26
102
{ACAD_REACTORS
330
1A
102
}
330
1A
100
AcDbPlotSettings
  1

  2
none_device
  4

  6

 40
0.0
 41
0.0
 42
0.0
 43
0.0
 44
0.0
 45
0.0
 46
0.0
 47
0.0
 48
0.0
 49
0.0
140
0.0
141
0.0
142
1.0
143
1.0
 70
   688
 72
     1
 73
     0
 74
     5
  7

 75
    16
 76
     0
 77
     2
 78
   300
147
1.0
148
0.0
149
0.0
100
AcDbLayout
  1
Layout2
 70
     1
 71
     2
 10
0.0
 20
0.0
 11
0.0
 21
0.0
 12
0.0
 22
0.0
 32
0.0
 14
0.0
 24
0.0
 34
0.0
 15
0.0
 25
0.0
 35
0.0
146
0.0
 13
0.0
 23
0.0
 33
0.0
 16
1.0
 26
0.0
 36
0.0
 17
0.0
 27
1.0
 37
0.0
 76
     0
330
23
  0
LAYOUT
  5
22
102
{ACAD_REACTORS
330
1A
102
}
330
1A
100
AcDbPlotSettings
  1

  2
none_device
  4
Letter_(8.50_x_11.00_Inches)
  6

 40
6.35
 41
6.35
 42
6.35000508
 43
6.35000508
 44
215.9
 45
279.4
 46
0.0
 47
0.0
 48
0.0
 49
0.0
140
0.0
141
0.0
142
1.0
143
1.0
 70
  1712
 72
     1
 73
     0
 74
     0
  7

 75
     0
 76
     0
 77
     2
 78
   300
147
1.0
148
0.0
149
0.0
100
AcDbLayout
  1
Model
 70
     1
 71
     0
 10
0.0
 20
0.0
 11
420.0
 21
297.0
 12
0.0
 22
0.0
 32
0.0
 14
-83.0
 24
-61.44236125273291
 34
0.0
 15
412.0015585507062
 25
85.5576387472247
 35
0.0
146
0.0
 13
0.0
 23
0.0
 33
0.0
 16
1.0
 26
0.0
 36
0.0
 17
0.0
 27
1.0
 37
0.0
 76
     0
330
1F
331
29
  0
MATERIAL
  5
45
102
{ACAD_REACTORS
330
43
102
}
330
43
100
AcDbMaterial
  1
ByBlock
 72
     1
 94
      127
  0
MATERIAL
  5
44
102
{ACAD_REACTORS
330
43
102
}
330
43
100
AcDbMaterial
  1
ByLayer
 72
     1
 94
      127
  0
MATERIAL
  5
46
102
{ACAD_REACTORS
330
43
102
}
330
43
100
AcDbMaterial
  1
Global
 72
     1
 94
      127
  0
MLEADERSTYLE
  5
6C
102
{ACAD_REACTORS
330
6B
102
}
330
6B
100
AcDbMLeaderStyle
179
     2
170
     2
171
     1
172
     0
 90
        2
 40
0.0
 41
0.0
173
     1
 91
-1056964608
340
14
 92
       -2
290
     1
 42
2.0
291
     1
 43
8.0
  3
Standard
341
0
 44
4.0
300

342
11
174
     1
178
     6
175
     1
176
     0
 93
-1056964608
 45
4.0
292
     0
297
     0
 46
4.0
343
0
 94
-1056964608
 47
1.0
 49
1.0
140
1.0
293
     1
141
0.0
294
     1
177
     0
142
1.0
295
     0
296
     0
143
3.75
271
     0
272
     9
273
     9
298
     0
  0
MLINESTYLE
  5
18
102
{ACAD_REACTORS
330
17
102
}
330
17
100
AcDbMlineStyle
  2
Standard
 70
     0
  3

 62
   256
 51
90.0
 52
90.0
 71
     2
 49
0.5
 62
   256
  6
BYLAYER
 49
-0.5
 62
   256
  6
BYLAYER
  0
ACDBPLACEHOLDER
  5
F
102
{ACAD_REACTORS
330
E
102
}
330
E
  0
SCALE
  5
48
102
{ACAD_REACTORS
330
47
102
}
330
47
100
AcDbScale
 70
     0
300
1:1
140
1.0
141
1.0
290
     1
  0
SCALE
  5
49
102
{ACAD_REACTORS
330
47
102
}
330
47
100
AcDbScale
 70
     0
300
1:2
140
1.0
141
2.0
290
     0
  0
SCALE
  5
4A
102
{ACAD_REACTORS
330
47
102
}
330
47
100
AcDbScale
 70
     0
300
1:4
140
1.0
141
4.0
290
     0
  0
SCALE
  5
4B
102
{ACAD_REACTORS
330
47
102
}
330
47
100
AcDbScale
 70
     0
300
1:5
140
1.0
141
5.0
290
     0
  0
SCALE
  5
4C
102
{ACAD_REACTORS
330
47
102
}
330
47
100
AcDbScale
 70
     0
300
1:8
140
1.0
141
8.0
290
     0
  0
SCALE
  5
4D
102
{ACAD_REACTORS
330
47
102
}
330
47
100
AcDbScale
 70
     0
300
1:10
140
1.0
141
10.0
290
     0
  0
SCALE
  5
4E
102
{ACAD_REACTORS
330
47
102
}
330
47
100
AcDbScale
 70
     0
300
1:16
140
1.0
141
16.0
290
     0
  0
SCALE
  5
4F
102
{ACAD_REACTORS
330
47
102
}
330
47
100
AcDbScale
 70
     0
300
1:20
140
1.0
141
20.0
290
     0
  0
SCALE
  5
50
102
{ACAD_REACTORS
330
47
102
}
330
47
100
AcDbScale
 70
     0
300
1:30
140
1.0
141
30.0
290
     0
  0
SCALE
  5
51
102
{ACAD_REACTORS
330
47
102
}
330
47
100
AcDbScale
 70
     0
300
1:40
140
1.0
141
40.0
290
     0
  0
SCALE
  5
52
102
{ACAD_REACTORS
330
47
102
}
330
47
100
AcDbScale
 70
     0
300
1:50
140
1.0
141
50.0
290
     0
  0
SCALE
  5
53
102
{ACAD_REACTORS
330
47
102
}
330
47
100
AcDbScale
 70
     0
300
1:100
140
1.0
141
100.0
290
     0
  0
SCALE
  5
54
102
{ACAD_REACTORS
330
47
102
}
330
47
100
AcDbScale
 70
     0
300
2:1
140
2.0
141
1.0
290
     0
  0
SCALE
  5
55
102
{ACAD_REACTORS
330
47
102
}
330
47
100
AcDbScale
 70
     0
300
4:1
140
4.0
141
1.0
290
     0
  0
SCALE
  5
56
102
{ACAD_REACTORS
330
47
102
}
330
47
100
AcDbScale
 70
     0
300
8:1
140
8.0
141
1.0
290
     0
  0
SCALE
  5
57
102
{ACAD_REACTORS
330
47
102
}
330
47
100
AcDbScale
 70
     0
300
10:1
140
10.0
141
1.0
290
     0
  0
SCALE
  5
58
102
{ACAD_REACTORS
330
47
102
}
330
47
100
AcDbScale
 70
     0
300
100:1
140
100.0
141
1.0
290
     0
  0
SCALE
  5
59
102
{ACAD_REACTORS
330
47
102
}
330
47
100
AcDbScale
 70
     0
300
1/128" = 1'-0"
140
0.0078125
141
12.0
290
     0
  0
SCALE
  5
5A
102
{ACAD_REACTORS
330
47
102
}
330
47
100
AcDbScale
 70
     0
300
1/64" = 1'-0"
140
0.015625
141
12.0
290
     0
  0
SCALE
  5
5B
102
{ACAD_REACTORS
330
47
102
}
330
47
100
AcDbScale
 70
     0
300
1/32" = 1'-0"
140
0.03125
141
12.0
290
     0
  0
SCALE
  5
5C
102
{ACAD_REACTORS
330
47
102
}
330
47
100
AcDbScale
 70
     0
300
1/16" = 1'-0"
140
0.0625
141
12.0
290
     0
  0
SCALE
  5
5D
102
{ACAD_REACTORS
330
47
102
}
330
47
100
AcDbScale
 70
     0
300
3/32" = 1'-0"
140
0.09375
141
12.0
290
     0
  0
SCALE
  5
5E
102
{ACAD_REACTORS
330
47
102
}
330
47
100
AcDbScale
 70
     0
300
1/8" = 1'-0"
140
0.125
141
12.0
290
     0
  0
SCALE
  5
5F
102
{ACAD_REACTORS
330
47
102
}
330
47
100
AcDbScale
 70
     0
300
3/16" = 1'-0"
140
0.1875
141
12.0
290
     0
  0
SCALE
  5
60
102
{ACAD_REACTORS
330
47
102
}
330
47
100
AcDbScale
 70
     0
300
1/4" = 1'-0"
140
0.25
141
12.0
290
     0
  0
SCALE
  5
61
102
{ACAD_REACTORS
330
47
102
}
330
47
100
AcDbScale
 70
     0
300
3/8" = 1'-0"
140
0.375
141
12.0
290
     0
  0
SCALE
  5
62
102
{ACAD_REACTORS
330
47
102
}
330
47
100
AcDbScale
 70
     0
300
1/2" = 1'-0"
140
0.5
141
12.0
290
     0
  0
SCALE
  5
63
102
{ACAD_REACTORS
330
47
102
}
330
47
100
AcDbScale
 70
     0
300
3/4" = 1'-0"
140
0.75
141
12.0
290
     0
  0
SCALE
  5
64
102
{ACAD_REACTORS
330
47
102
}
330
47
100
AcDbScale
 70
     0
300
1" = 1'-0"
140
1.0
141
12.0
290
     0
  0
SCALE
  5
65
102
{ACAD_REACTORS
330
47
102
}
330
47
100
AcDbScale
 70
     0
300
1-1/2" = 1'-0"
140
1.5
141
12.0
290
     0
  0
SCALE
  5
66
102
{ACAD_REACTORS
330
47
102
}
330
47
100
AcDbScale
 70
     0
300
3" = 1'-0"
140
3.0
141
12.0
290
     0
  0
SCALE
  5
67
102
{ACAD_REACTORS
330
47
102
}
330
47
100
AcDbScale
 70
     0
300
6" = 1'-0"
140
6.0
141
12.0
290
     0
  0
SCALE
  5
68
102
{ACAD_REACTORS
330
47
102
}
330
47
100
AcDbScale
 70
     0
300
1'-0" = 1'-0"
140
12.0
141
12.0
290
     0
  0
TABLESTYLE
  5
6A
102
{ACAD_REACTORS
330
69
102
}
102
{ACAD_XDICTIONARY
360
598
102
}
330
69
100
AcDbTableStyle
  3
Standard
 70
     0
 71
     0
 40
0.06
 41
0.06
280
     0
281
     0
  7
Standard
140
4.5
170
     2
 62
     0
 63
   257
283
     0
 90
        4
 91
        0
  1

274
    -2
284
     1
 64
     0
275
    -2
285
     1
 65
     0
276
    -2
286
     1
 66
     0
277
    -2
287
     1
 67
     0
278
    -2
288
     1
 68
     0
279
    -2
289
     1
 69
     0
  7
Standard
140
6.0
170
     5
 62
     0
 63
   257
283
     0
 90
        4
 91
        0
  1

274
    -2
284
     1
 64
     0
275
    -2
285
     1
 65
     0
276
    -2
286
     1
 66
     0
277
    -2
287
     1
 67
     0
278
    -2
288
     1
 68
     0
279
    -2
289
     1
 69
     0
  7
Standard
140
4.5
170
     5
 62
     0
 63
   257
283
     0
 90
        4
 91
        0
  1

274
    -2
284
     1
 64
     0
275
    -2
285
     1
 65
     0
276
    -2
286
     1
 66
     0
277
    -2
287
     1
 67
     0
278
    -2
288
     1
 68
     0
279
    -2
289
     1
 69
     0
  0
VISUALSTYLE
  5
2F
102
{ACAD_REACTORS
330
2A
102
}
330
2A
100
AcDbVisualStyle
  2
2dWireframe
 70
     4
177
     3
291
     0
 70
    58
 90
        0
176
     1
 90
        2
176
     1
 90
        0
176
     1
 90
        0
176
     1
 40
0.6
176
     1
 40
30.0
176
     1
 62
     7
420
 16777215
176
     1
 90
        1
176
     1
 90
        4
176
     1
 62
     7
176
     1
 62
   257
176
     1
 90
        1
176
     1
 90
        1
176
     1
 40
1.0
176
     1
 90
        0
176
     1
 62
   257
176
     1
 40
1.0
176
     1
 90
        1
176
     1
 90
        6
176
     1
 90
        2
176
     1
 62
     7
176
     1
 90
        5
176
     1
 90
        0
176
     1
 90
        0
176
     1
290
     0
176
     1
 90
        1
176
     1
 40
0.0
176
     1
 90
        0
176
     1
290
     1
176
     1
290
     1
176
     1
290
     0
176
     1
290
     0
176
     1
290
     0
176
     1
290
     0
176
     1
290
     0
176
     1
290
     0
176
     1
290
     0
176
     1
 90
       50
176
     1
 40
0.0
176
     1
 40
1.0
176
     1
 90
        0
176
     1
 62
    18
420
        0
176
     1
 90
       50
176
     1
 90
        3
176
     1
 62
     5
420
      255
176
     1
290
     0
176
     1
 90
       50
176
     1
 90
       50
176
     1
 90
       50
176
     1
290
     0
176
     1
 90
       50
176
     1
 62
   256
176
     0
 40
1.0
176
     0
 90
        2
176
     1
  1
strokes_ogs.tif
176
     1
290
     0
176
     1
 40
1.0
176
     1
 40
1.0
176
     1
  0
VISUALSTYLE
  5
32
102
{ACAD_REACTORS
330
2A
102
}
330
2A
100
AcDbVisualStyle
  2
Basic
 70
     7
177
     3
291
     1
 70
    58
 90
        1
176
     1
 90
        0
176
     1
 90
        1
176
     1
 90
        0
176
     1
 40
0.6
176
     1
 40
30.0
176
     1
 62
     7
420
 16777215
176
     1
 90
        0
176
     1
 90
        4
176
     1
 62
     7
176
     1
 62
   257
176
     1
 90
        1
176
     1
 90
        1
176
     1
 40
1.0
176
     1
 90
        8
176
     1
 62
     7
176
     1
 40
1.0
176
     1
 90
        1
176
     1
 90
        6
176
     1
 90
        2
176
     1
 62
     7
176
     1
 90
        5
176
     1
 90
        0
176
     1
 90
        0
176
     1
290
     0
176
     1
 90
        1
176
     1
 40
0.0
176
     1
 90
        0
176
     1
290
     0
176
     1
290
     1
176
     1
290
     1
176
     1
290
     0
176
     1
290
     0
176
     1
290
     0
176
     1
290
     0
176
     1
290
     0
176
     1
290
     0
176
     1
 90
       50
176
     1
 40
0.0
176
     1
 40
1.0
176
     1
 90
        0
176
     1
 62
    18
420
        0
176
     1
 90
       50
176
     1
 90
        3
176
     1
 62
     5
420
      255
176
     1
290
     0
176
     1
 90
       50
176
     1
 90
       50
176
     1
 90
       50
176
     1
290
     0
176
     1
 90
       50
176
     1
 62
   256
176
     0
 40
1.0
176
     0
 90
        2
176
     1
  1
strokes_ogs.tif
176
     1
290
     0
176
     1
 40
1.0
176
     1
 40
1.0
176
     1
  0
VISUALSTYLE
  5
36
102
{ACAD_REACTORS
330
2A
102
}
330
2A
100
AcDbVisualStyle
  2
Brighten
 70
    12
177
     3
291
     1
 70
    58
 90
        2
176
     1
 90
        2
176
     1
 90
        0
176
     1
 90
        0
176
     1
 40
0.6
176
     1
 40
30.0
176
     1
 62
     7
420
 16777215
176
     1
 90
        1
176
     1
 90
        4
176
     1
 62
     7
176
     1
 62
   257
176
     1
 90
        1
176
     1
 90
        1
176
     1
 40
1.0
176
     1
 90
        8
176
     1
 62
     7
176
     1
 40
1.0
176
     1
 90
        1
176
     1
 90
        6
176
     1
 90
        2
176
     1
 62
     7
176
     1
 90
        5
176
     1
 90
        0
176
     1
 90
        0
176
     1
290
     0
176
     1
 90
        1
176
     1
 40
50.0
176
     1
 90
        0
176
     1
290
     0
176
     1
290
     1
176
     1
290
     1
176
     1
290
     0
176
     1
290
     0
176
     1
290
     0
176
     1
290
     0
176
     1
290
     0
176
     1
290
     0
176
     1
 90
       50
176
     1
 40
0.0
176
     1
 40
1.0
176
     1
 90
        0
176
     1
 62
    18
420
        0
176
     1
 90
       50
176
     1
 90
        3
176
     1
 62
     5
420
      255
176
     1
290
     0
176
     1
 90
       50
176
     1
 90
       50
176
     1
 90
       50
176
     1
290
     0
176
     1
 90
       50
176
     1
 62
   256
176
     0
 40
1.0
176
     0
 90
        2
176
     1
  1
strokes_ogs.tif
176
     1
290
     0
176
     1
 40
1.0
176
     1
 40
1.0
176
     1
  0
VISUALSTYLE
  5
3A
102
{ACAD_REACTORS
330
2A
102
}
330
2A
100
AcDbVisualStyle
  2
ColorChange
 70
    16
177
     3
291
     1
 70
    58
 90
        2
176
     1
 90
        2
176
     1
 90
        3
176
     1
 90
        0
176
     1
 40
0.6
176
     1
 40
30.0
176
     1
 62
     8
420
  8421504
176
     1
 90
        1
176
     1
 90
        4
176
     1
 62
     7
176
     1
 62
   257
176
     1
 90
        1
176
     1
 90
        1
176
     1
 40
1.0
176
     1
 90
        8
176
     1
 62
     8
420
  8421504
176
     1
 40
1.0
176
     1
 90
        1
176
     1
 90
        6
176
     1
 90
        2
176
     1
 62
     7
176
     1
 90
        5
176
     1
 90
        0
176
     1
 90
        0
176
     1
290
     0
176
     1
 90
        1
176
     1
 40
0.0
176
     1
 90
        0
176
     1
290
     0
176
     1
290
     1
176
     1
290
     1
176
     1
290
     0
176
     1
290
     0
176
     1
290
     0
176
     1
290
     0
176
     1
290
     0
176
     1
290
     0
176
     1
 90
       50
176
     1
 40
0.0
176
     1
 40
1.0
176
     1
 90
        0
176
     1
 62
    18
420
        0
176
     1
 90
       50
176
     1
 90
        3
176
     1
 62
     5
420
      255
176
     1
290
     0
176
     1
 90
       50
176
     1
 90
       50
176
     1
 90
       50
176
     1
290
     0
176
     1
 90
       50
176
     1
 62
   256
176
     0
 40
1.0
176
     0
 90
        2
176
     1
  1
strokes_ogs.tif
176
     1
290
     0
176
     1
 40
1.0
176
     1
 40
1.0
176
     1
  0
VISUALSTYLE
  5
34
102
{ACAD_REACTORS
330
2A
102
}
330
2A
100
AcDbVisualStyle
  2
Conceptual
 70
     9
177
     3
291
     0
 70
    58
 90
        3
176
     1
 90
        2
176
     1
 90
        0
176
     1
 90
        0
176
     1
 40
0.6
176
     1
 40
30.0
176
     1
 62
     7
420
 16777215
176
     1
 90
        2
176
     1
 90
        2
176
     1
 62
     7
176
     1
 62
   257
176
     1
 90
        1
176
     1
 90
        1
176
     1
 40
179.0
176
     1
 90
        8
176
     1
 62
     7
176
     1
 40
1.0
176
     1
 90
        1
176
     1
 90
        6
176
     1
 90
        2
176
     1
 62
     7
176
     1
 90
        3
176
     1
 90
        0
176
     1
 90
        0
176
     1
290
     0
176
     1
 90
        1
176
     1
 40
0.0
176
     1
 90
        0
176
     1
290
     0
176
     1
290
     1
176
     1
290
     1
176
     1
290
     0
176
     1
290
     0
176
     1
290
     0
176
     1
290
     0
176
     1
290
     0
176
     1
290
     0
176
     1
 90
       50
176
     1
 40
0.0
176
     1
 40
1.0
176
     1
 90
        0
176
     1
 62
    18
420
        0
176
     1
 90
       50
176
     1
 90
        3
176
     1
 62
     5
420
      255
176
     1
290
     0
176
     1
 90
       50
176
     1
 90
       50
176
     1
 90
       50
176
     1
290
     0
176
     1
 90
       50
176
     1
 62
   256
176
     0
 40
1.0
176
     0
 90
        2
176
     1
  1
strokes_ogs.tif
176
     1
290
     0
176
     1
 40
1.0
176
     1
 40
1.0
176
     1
  0
VISUALSTYLE
  5
35
102
{ACAD_REACTORS
330
2A
102
}
330
2A
100
AcDbVisualStyle
  2
Dim
 70
    11
177
     3
291
     1
 70
    58
 90
        2
176
     1
 90
        2
176
     1
 90
        0
176
     1
 90
        0
176
     1
 40
0.6
176
     1
 40
30.0
176
     1
 62
     7
420
 16777215
176
     1
 90
        1
176
     1
 90
        4
176
     1
 62
     7
176
     1
 62
   257
176
     1
 90
        1
176
     1
 90
        1
176
     1
 40
1.0
176
     1
 90
        8
176
     1
 62
     7
176
     1
 40
1.0
176
     1
 90
        1
176
     1
 90
        6
176
     1
 90
        2
176
     1
 62
     7
176
     1
 90
        5
176
     1
 90
        0
176
     1
 90
        0
176
     1
290
     0
176
     1
 90
        1
176
     1
 40
-50.0
176
     1
 90
        0
176
     1
290
     0
176
     1
290
     1
176
     1
290
     1
176
     1
290
     0
176
     1
290
     0
176
     1
290
     0
176
     1
290
     0
176
     1
290
     0
176
     1
290
     0
176
     1
 90
       50
176
     1
 40
0.0
176
     1
 40
1.0
176
     1
 90
        0
176
     1
 62
    18
420
        0
176
     1
 90
       50
176
     1
 90
        3
176
     1
 62
     5
420
      255
176
     1
290
     0
176
     1
 90
       50
176
     1
 90
       50
176
     1
 90
       50
176
     1
290
     0
176
     1
 90
       50
176
     1
 62
   256
176
     0
 40
1.0
176
     0
 90
        2
176
     1
  1
strokes_ogs.tif
176
     1
290
     0
176
     1
 40
1.0
176
     1
 40
1.0
176
     1
  0
VISUALSTYLE
  5
3D
102
{ACAD_REACTORS
330
2A
102
}
330
2A
100
AcDbVisualStyle
  2
EdgeColorOff
 70
    22
177
     3
291
     1
 70
    58
 90
        2
176
     0
 90
        2
176
     0
 90
        0
176
     0
 90
        0
176
     0
 40
0.6
176
     0
 40
30.0
176
     0
 62
     7
420
 16777215
176
     0
 90
        1
176
     0
 90
        4
176
     0
 62
     7
176
     0
 62
   257
176
     0
 90
        1
176
     0
 90
        1
176
     0
 40
1.0
176
     0
 90
        8
176
     2
 62
     7
176
     0
 40
1.0
176
     0
 90
        1
176
     0
 90
        6
176
     0
 90
        2
176
     0
 62
     7
176
     0
 90
        5
176
     0
 90
        0
176
     0
 90
        0
176
     0
290
     0
176
     0
 90
        1
176
     0
 40
0.0
176
     0
 90
        0
176
     0
290
     0
176
     0
290
     1
176
     0
290
     1
176
     0
290
     0
176
     0
290
     0
176
     0
290
     0
176
     0
290
     0
176
     0
290
     0
176
     0
290
     0
176
     0
 90
       50
176
     0
 40
0.0
176
     0
 40
1.0
176
     0
 90
        0
176
     0
 62
    18
420
        0
176
     0
 90
       50
176
     0
 90
        3
176
     0
 62
     5
420
      255
176
     0
290
     0
176
     0
 90
       50
176
     0
 90
       50
176
     0
 90
       50
176
     0
290
     0
176
     0
 90
       50
176
     0
 62
   256
176
     0
 40
1.0
176
     0
 90
        2
176
     0
  1
strokes_ogs.tif
176
     0
290
     0
176
     0
 40
1.0
176
     0
 40
1.0
176
     0
  0
VISUALSTYLE
  5
39
102
{ACAD_REACTORS
330
2A
102
}
330
2A
100
AcDbVisualStyle
  2
Facepattern
 70
    15
177
     3
291
     1
 70
    58
 90
        2
176
     1
 90
        2
176
     1
 90
        0
176
     1
 90
        0
176
     1
 40
0.6
176
     1
 40
30.0
176
     1
 62
     7
420
 16777215
176
     1
 90
        1
176
     1
 90
        4
176
     1
 62
     7
176
     1
 62
   257
176
     1
 90
        1
176
     1
 90
        1
176
     1
 40
1.0
176
     1
 90
        8
176
     1
 62
     7
176
     1
 40
1.0
176
     1
 90
        1
176
     1
 90
        6
176
     1
 90
        2
176
     1
 62
     7
176
     1
 90
        5
176
     1
 90
        0
176
     1
 90
        0
176
     1
290
     0
176
     1
 90
        1
176
     1
 40
0.0
176
     1
 90
        0
176
     1
290
     0
176
     1
290
     1
176
     1
290
     1
176
     1
290
     0
176
     1
290
     0
176
     1
290
     0
176
     1
290
     0
176
     1
290
     0
176
     1
290
     0
176
     1
 90
       50
176
     1
 40
0.0
176
     1
 40
1.0
176
     1
 90
        0
176
     1
 62
    18
420
        0
176
     1
 90
       50
176
     1
 90
        3
176
     1
 62
     5
420
      255
176
     1
290
     0
176
     1
 90
       50
176
     1
 90
       50
176
     1
 90
       50
176
     1
290
     0
176
     1
 90
       50
176
     1
 62
   256
176
     0
 40
1.0
176
     0
 90
        2
176
     1
  1
strokes_ogs.tif
176
     1
290
     0
176
     1
 40
1.0
176
     1
 40
1.0
176
     1
  0
VISUALSTYLE
  5
2B
102
{ACAD_REACTORS
330
2A
102
}
330
2A
100
AcDbVisualStyle
  2
Flat
 70
     0
177
     3
291
     1
 70
    58
 90
        2
176
     1
 90
        1
176
     1
 90
        1
176
     1
 90
        2
176
     1
 40
0.6
176
     1
 40
30.0
176
     1
 62
     7
420
 16777215
176
     1
 90
        0
176
     1
 90
        0
176
     1
 62
     7
176
     1
 62
   257
176
     1
 90
        1
176
     1
 90
        1
176
     1
 40
1.0
176
     1
 90
        8
176
     1
 62
     7
176
     1
 40
1.0
176
     1
 90
        1
176
     1
 90
        6
176
     1
 90
        2
176
     1
 62
     7
176
     1
 90
        5
176
     1
 90
        0
176
     1
 90
        0
176
     1
290
     0
176
     1
 90
       13
176
     1
 40
0.0
176
     1
 90
        0
176
     1
290
     0
176
     1
290
     1
176
     1
290
     1
176
     1
290
     0
176
     1
290
     0
176
     1
290
     0
176
     1
290
     0
176
     1
290
     0
176
     1
290
     0
176
     1
 90
       50
176
     1
 40
0.0
176
     1
 40
1.0
176
     1
 90
        0
176
     1
 62
    18
420
        0
176
     1
 90
       50
176
     1
 90
        3
176
     1
 62
     5
420
      255
176
     1
290
     0
176
     1
 90
       50
176
     1
 90
       50
176
     1
 90
       50
176
     1
290
     0
176
     1
 90
       50
176
     1
 62
   256
176
     0
 40
1.0
176
     0
 90
        2
176
     1
  1
strokes_ogs.tif
176
     1
290
     0
176
     1
 40
1.0
176
     1
 40
1.0
176
     1
  0
VISUALSTYLE
  5
2C
102
{ACAD_REACTORS
330
2A
102
}
330
2A
100
AcDbVisualStyle
  2
FlatWithEdges
 70
     1
177
     3
291
     1
 70
    58
 90
        2
176
     1
 90
        1
176
     1
 90
        1
176
     1
 90
        2
176
     1
 40
0.6
176
     1
 40
30.0
176
     1
 62
     7
420
 16777215
176
     1
 90
        1
176
     1
 90
        0
176
     1
 62
     7
176
     1
 62
   257
176
     1
 90
        1
176
     1
 90
        1
176
     1
 40
1.0
176
     1
 90
        0
176
     1
 62
   257
176
     1
 40
1.0
176
     1
 90
        1
176
     1
 90
        6
176
     1
 90
        2
176
     1
 62
     7
176
     1
 90
        5
176
     1
 90
        0
176
     1
 90
        0
176
     1
290
     0
176
     1
 90
       13
176
     1
 40
0.0
176
     1
 90
        0
176
     1
290
     0
176
     1
290
     1
176
     1
290
     1
176
     1
290
     0
176
     1
290
     0
176
     1
290
     0
176
     1
290
     0
176
     1
290
     0
176
     1
290
     0
176
     1
 90
       50
176
     1
 40
0.0
176
     1
 40
1.0
176
     1
 90
        0
176
     1
 62
    18
420
        0
176
     1
 90
       50
176
     1
 90
        3
176
     1
 62
     5
420
      255
176
     1
290
     0
176
     1
 90
       50
176
     1
 90
       50
176
     1
 90
       50
176
     1
290
     0
176
     1
 90
       50
176
     1
 62
   256
176
     0
 40
1.0
176
     0
 90
        2
176
     1
  1
strokes_ogs.tif
176
     1
290
     0
176
     1
 40
1.0
176
     1
 40
1.0
176
     1
  0
VISUALSTYLE
  5
2D
102
{ACAD_REACTORS
330
2A
102
}
330
2A
100
AcDbVisualStyle
  2
Gouraud
 70
     2
177
     3
291
     1
 70
    58
 90
        2
176
     1
 90
        2
176
     1
 90
        1
176
     1
 90
        2
176
     1
 40
0.6
176
     1
 40
30.0
176
     1
 62
     7
420
 16777215
176
     1
 90
        0
176
     1
 90
        0
176
     1
 62
     7
176
     1
 62
   257
176
     1
 90
        1
176
     1
 90
        1
176
     1
 40
1.0
176
     1
 90
        0
176
     1
 62
     7
176
     1
 40
1.0
176
     1
 90
        1
176
     1
 90
        6
176
     1
 90
        2
176
     1
 62
     7
176
     1
 90
        5
176
     1
 90
        0
176
     1
 90
        0
176
     1
290
     0
176
     1
 90
       13
176
     1
 40
0.0
176
     1
 90
        0
176
     1
290
     0
176
     1
290
     1
176
     1
290
     1
176
     1
290
     0
176
     1
290
     0
176
     1
290
     0
176
     1
290
     0
176
     1
290
     0
176
     1
290
     0
176
     1
 90
       50
176
     1
 40
0.0
176
     1
 40
1.0
176
     1
 90
        0
176
     1
 62
    18
420
        0
176
     1
 90
       50
176
     1
 90
        3
176
     1
 62
     5
420
      255
176
     1
290
     0
176
     1
 90
       50
176
     1
 90
       50
176
     1
 90
       50
176
     1
290
     0
176
     1
 90
       50
176
     1
 62
   256
176
     0
 40
1.0
176
     0
 90
        2
176
     1
  1
strokes_ogs.tif
176
     1
290
     0
176
     1
 40
1.0
176
     1
 40
1.0
176
     1
  0
VISUALSTYLE
  5
2E
102
{ACAD_REACTORS
330
2A
102
}
330
2A
100
AcDbVisualStyle
  2
GouraudWithEdges
 70
     3
177
     3
291
     1
 70
    58
 90
        2
176
     1
 90
        2
176
     1
 90
        1
176
     1
 90
        2
176
     1
 40
0.6
176
     1
 40
30.0
176
     1
 62
     7
420
 16777215
176
     1
 90
        1
176
     1
 90
        0
176
     1
 62
     7
176
     1
 62
   257
176
     1
 90
        1
176
     1
 90
        1
176
     1
 40
1.0
176
     1
 90
        0
176
     1
 62
   257
176
     1
 40
1.0
176
     1
 90
        1
176
     1
 90
        6
176
     1
 90
        2
176
     1
 62
     7
176
     1
 90
        5
176
     1
 90
        0
176
     1
 90
        0
176
     1
290
     0
176
     1
 90
       13
176
     1
 40
0.0
176
     1
 90
        0
176
     1
290
     0
176
     1
290
     1
176
     1
290
     1
176
     1
290
     0
176
     1
290
     0
176
     1
290
     0
176
     1
290
     0
176
     1
290
     0
176
     1
290
     0
176
     1
 90
       50
176
     1
 40
0.0
176
     1
 40
1.0
176
     1
 90
        0
176
     1
 62
    18
420
        0
176
     1
 90
       50
176
     1
 90
        3
176
     1
 62
     5
420
      255
176
     1
290
     0
176
     1
 90
       50
176
     1
 90
       50
176
     1
 90
       50
176
     1
290
     0
176
     1
 90
       50
176
     1
 62
   256
176
     0
 40
1.0
176
     0
 90
        2
176
     1
  1
strokes_ogs.tif
176
     1
290
     0
176
     1
 40
1.0
176
     1
 40
1.0
176
     1
  0
VISUALSTYLE
  5
31
102
{ACAD_REACTORS
330
2A
102
}
330
2A
100
AcDbVisualStyle
  2
Hidden
 70
     6
177
     3
291
     0
 70
    58
 90
        1
176
     1
 90
        2
176
     1
 90
        2
176
     1
 90
        0
176
     1
 40
0.6
176
     1
 40
30.0
176
     1
 62
     7
420
 16777215
176
     1
 90
        2
176
     1
 90
        2
176
     1
 62
     7
176
     1
 62
   257
176
     1
 90
        2
176
     1
 90
        1
176
     1
 40
40.0
176
     1
 90
        0
176
     1
 62
   257
176
     1
 40
1.0
176
     1
 90
        1
176
     1
 90
        6
176
     1
 90
        2
176
     1
 62
     7
176
     1
 90
        3
176
     1
 90
        0
176
     1
 90
        0
176
     1
290
     0
176
     1
 90
        1
176
     1
 40
0.0
176
     1
 90
        0
176
     1
290
     0
176
     1
290
     1
176
     1
290
     1
176
     1
290
     0
176
     1
290
     0
176
     1
290
     0
176
     1
290
     0
176
     1
290
     0
176
     1
290
     0
176
     1
 90
       50
176
     1
 40
0.0
176
     1
 40
1.0
176
     1
 90
        0
176
     1
 62
    18
420
        0
176
     1
 90
       50
176
     1
 90
        3
176
     1
 62
     5
420
      255
176
     1
290
     0
176
     1
 90
       50
176
     1
 90
       50
176
     1
 90
       50
176
     1
290
     0
176
     1
 90
       50
176
     1
 62
   256
176
     0
 40
1.0
176
     0
 90
        2
176
     1
  1
strokes_ogs.tif
176
     1
290
     0
176
     1
 40
1.0
176
     1
 40
1.0
176
     1
  0
VISUALSTYLE
  5
3B
102
{ACAD_REACTORS
330
2A
102
}
330
2A
100
AcDbVisualStyle
  2
JitterOff
 70
    20
177
     3
291
     1
 70
    58
 90
        2
176
     0
 90
        2
176
     0
 90
        0
176
     0
 90
        0
176
     0
 40
0.6
176
     0
 40
30.0
176
     0
 62
     7
420
 16777215
176
     0
 90
        1
176
     0
 90
        4
176
     0
 62
     7
176
     0
 62
   257
176
     0
 90
        1
176
     0
 90
        1
176
     0
 40
1.0
176
     0
 90
       10
176
     2
 62
     7
176
     0
 40
1.0
176
     0
 90
        1
176
     0
 90
        6
176
     0
 90
        2
176
     0
 62
     7
176
     0
 90
        5
176
     0
 90
        0
176
     0
 90
        0
176
     0
290
     0
176
     0
 90
        1
176
     0
 40
0.0
176
     0
 90
        0
176
     0
290
     0
176
     0
290
     1
176
     0
290
     1
176
     0
290
     0
176
     0
290
     0
176
     0
290
     0
176
     0
290
     0
176
     0
290
     0
176
     0
290
     0
176
     0
 90
       50
176
     0
 40
0.0
176
     0
 40
1.0
176
     0
 90
        0
176
     0
 62
    18
420
        0
176
     0
 90
       50
176
     0
 90
        3
176
     0
 62
     5
420
      255
176
     0
290
     0
176
     0
 90
       50
176
     0
 90
       50
176
     0
 90
       50
176
     0
290
     0
176
     0
 90
       50
176
     0
 62
   256
176
     0
 40
1.0
176
     0
 90
        2
176
     0
  1
strokes_ogs.tif
176
     0
290
     0
176
     0
 40
1.0
176
     0
 40
1.0
176
     0
  0
VISUALSTYLE
  5
38
102
{ACAD_REACTORS
330
2A
102
}
330
2A
100
AcDbVisualStyle
  2
Linepattern
 70
    14
177
     3
291
     1
 70
    58
 90
        2
176
     1
 90
        2
176
     1
 90
        0
176
     1
 90
        0
176
     1
 40
0.6
176
     1
 40
30.0
176
     1
 62
     7
420
 16777215
176
     1
 90
        1
176
     1
 90
        4
176
     1
 62
     7
176
     1
 62
   257
176
     1
 90
        7
176
     1
 90
        7
176
     1
 40
1.0
176
     1
 90
        8
176
     1
 62
     7
176
     1
 40
1.0
176
     1
 90
        1
176
     1
 90
        6
176
     1
 90
        2
176
     1
 62
     7
176
     1
 90
        5
176
     1
 90
        0
176
     1
 90
        0
176
     1
290
     0
176
     1
 90
        1
176
     1
 40
0.0
176
     1
 90
        0
176
     1
290
     0
176
     1
290
     1
176
     1
290
     1
176
     1
290
     0
176
     1
290
     0
176
     1
290
     0
176
     1
290
     0
176
     1
290
     0
176
     1
290
     0
176
     1
 90
       50
176
     1
 40
0.0
176
     1
 40
1.0
176
     1
 90
        0
176
     1
 62
    18
420
        0
176
     1
 90
       50
176
     1
 90
        3
176
     1
 62
     5
420
      255
176
     1
290
     0
176
     1
 90
       50
176
     1
 90
       50
176
     1
 90
       50
176
     1
290
     0
176
     1
 90
       50
176
     1
 62
   256
176
     0
 40
1.0
176
     0
 90
        2
176
     1
  1
strokes_ogs.tif
176
     1
290
     0
176
     1
 40
1.0
176
     1
 40
1.0
176
     1
  0
VISUALSTYLE
  5
3C
102
{ACAD_REACTORS
330
2A
102
}
330
2A
100
AcDbVisualStyle
  2
OverhangOff
 70
    21
177
     3
291
     1
 70
    58
 90
        2
176
     0
 90
        2
176
     0
 90
        0
176
     0
 90
        0
176
     0
 40
0.6
176
     0
 40
30.0
176
     0
 62
     7
420
 16777215
176
     0
 90
        1
176
     0
 90
        4
176
     0
 62
     7
176
     0
 62
   257
176
     0
 90
        1
176
     0
 90
        1
176
     0
 40
1.0
176
     0
 90
        9
176
     2
 62
     7
176
     0
 40
1.0
176
     0
 90
        1
176
     0
 90
        6
176
     0
 90
        2
176
     0
 62
     7
176
     0
 90
        5
176
     0
 90
        0
176
     0
 90
        0
176
     0
290
     0
176
     0
 90
        1
176
     0
 40
0.0
176
     0
 90
        0
176
     0
290
     0
176
     0
290
     1
176
     0
290
     1
176
     0
290
     0
176
     0
290
     0
176
     0
290
     0
176
     0
290
     0
176
     0
290
     0
176
     0
290
     0
176
     0
 90
       50
176
     0
 40
0.0
176
     0
 40
1.0
176
     0
 90
        0
176
     0
 62
    18
420
        0
176
     0
 90
       50
176
     0
 90
        3
176
     0
 62
     5
420
      255
176
     0
290
     0
176
     0
 90
       50
176
     0
 90
       50
176
     0
 90
       50
176
     0
290
     0
176
     0
 90
       50
176
     0
 62
   256
176
     0
 40
1.0
176
     0
 90
        2
176
     0
  1
strokes_ogs.tif
176
     0
290
     0
176
     0
 40
1.0
176
     0
 40
1.0
176
     0
  0
VISUALSTYLE
  5
33
102
{ACAD_REACTORS
330
2A
102
}
330
2A
100
AcDbVisualStyle
  2
Realistic
 70
     8
177
     3
291
     0
 70
    58
 90
        2
176
     1
 90
        3
176
     1
 90
        0
176
     1
 90
        2
176
     1
 40
0.6
176
     1
 40
30.0
176
     1
 62
     7
420
 16777215
176
     1
 90
        0
176
     1
 90
        0
176
     1
 62
     7
176
     1
 62
   257
176
     1
 90
        1
176
     1
 90
        1
176
     1
 40
1.0
176
     1
 90
        8
176
     1
 62
   257
176
     1
 40
1.0
176
     1
 90
        1
176
     1
 90
        6
176
     1
 90
        2
176
     1
 62
     7
176
     1
 90
        3
176
     1
 90
        0
176
     1
 90
        0
176
     1
290
     0
176
     1
 90
       13
176
     1
 40
0.0
176
     1
 90
        0
176
     1
290
     0
176
     1
290
     1
176
     1
290
     1
176
     1
290
     0
176
     1
290
     0
176
     1
290
     0
176
     1
290
     0
176
     1
290
     0
176
     1
290
     0
176
     1
 90
       50
176
     1
 40
0.0
176
     1
 40
1.0
176
     1
 90
        0
176
     1
 62
    18
420
        0
176
     1
 90
       50
176
     1
 90
        3
176
     1
 62
     5
420
      255
176
     1
290
     0
176
     1
 90
       50
176
     1
 90
       50
176
     1
 90
       50
176
     1
290
     0
176
     1
 90
       50
176
     1
 62
   256
176
     0
 40
1.0
176
     0
 90
        2
176
     1
  1
strokes_ogs.tif
176
     1
290
     0
176
     1
 40
1.0
176
     1
 40
1.0
176
     1
  0
VISUALSTYLE
  5
42
102
{ACAD_REACTORS
330
2A
102
}
330
2A
100
AcDbVisualStyle
  2
Shaded
 70
    27
177
     3
291
     0
 70
    58
 90
        2
176
     1
 90
        2
176
     1
 90
        1
176
     1
 90
        2
176
     1
 40
0.6
176
     1
 40
30.0
176
     1
 62
     7
420
 16777215
176
     1
 90
        0
176
     1
 90
        4
176
     1
 62
     7
176
     1
 62
   257
176
     1
 90
        1
176
     1
 90
        1
176
     1
 40
1.0
176
     1
 90
        8
176
     1
 62
   257
176
     1
 40
1.0
176
     1
 90
        1
176
     1
 90
        6
176
     1
 90
        2
176
     1
 62
     8
420
  7895160
176
     1
 90
        3
176
     1
 90
        0
176
     1
 90
        0
176
     1
290
     0
176
     1
 90
        5
176
     1
 40
0.0
176
     1
 90
        0
176
     1
290
     0
176
     1
290
     1
176
     1
290
     1
176
     1
290
     0
176
     1
290
     0
176
     1
290
     0
176
     1
290
     0
176
     1
290
     0
176
     1
290
     0
176
     1
 90
       50
176
     1
 40
0.0
176
     1
 40
1.0
176
     1
 90
        0
176
     1
 62
    18
420
        0
176
     1
 90
       50
176
     1
 90
        3
176
     1
 62
     5
420
      255
176
     1
290
     0
176
     1
 90
       50
176
     1
 90
       50
176
     1
 90
       50
176
     1
290
     0
176
     1
 90
       50
176
     1
 62
   256
176
     0
 40
1.0
176
     0
 90
        2
176
     1
  1
strokes_ogs.tif
176
     1
290
     0
176
     1
 40
1.0
176
     1
 40
1.0
176
     1
  0
VISUALSTYLE
  5
41
102
{ACAD_REACTORS
330
2A
102
}
330
2A
100
AcDbVisualStyle
  2
Shaded with edges
 70
    26
177
     3
291
     0
 70
    58
 90
        2
176
     1
 90
        2
176
     1
 90
        1
176
     1
 90
        2
176
     1
 40
0.6
176
     1
 40
30.0
176
     1
 62
     7
420
 16777215
176
     1
 90
        1
176
     1
 90
       10
176
     1
 62
     7
176
     1
 62
   257
176
     1
 90
        2
176
     1
 90
        1
176
     1
 40
1.0
176
     1
 90
        8
176
     1
 62
   257
176
     1
 40
1.0
176
     1
 90
        1
176
     1
 90
        6
176
     1
 90
        2
176
     1
 62
     7
176
     1
 90
        3
176
     1
 90
        0
176
     1
 90
        0
176
     1
290
     0
176
     1
 90
        5
176
     1
 40
0.0
176
     1
 90
        0
176
     1
290
     0
176
     1
290
     1
176
     1
290
     1
176
     1
290
     0
176
     1
290
     0
176
     1
290
     0
176
     1
290
     0
176
     1
290
     0
176
     1
290
     0
176
     1
 90
       50
176
     1
 40
0.0
176
     1
 40
1.0
176
     1
 90
        0
176
     1
 62
    18
420
        0
176
     1
 90
       50
176
     1
 90
        3
176
     1
 62
     5
420
      255
176
     1
290
     0
176
     1
 90
       50
176
     1
 90
       50
176
     1
 90
       50
176
     1
290
     0
176
     1
 90
       50
176
     1
 62
   256
176
     0
 40
1.0
176
     0
 90
        2
176
     1
  1
strokes_ogs.tif
176
     1
290
     0
176
     1
 40
1.0
176
     1
 40
1.0
176
     1
  0
VISUALSTYLE
  5
3E
102
{ACAD_REACTORS
330
2A
102
}
330
2A
100
AcDbVisualStyle
  2
Shades of Gray
 70
    23
177
     3
291
     0
 70
    58
 90
        2
176
     1
 90
        2
176
     1
 90
        3
176
     1
 90
        0
176
     1
 40
0.6
176
     1
 40
30.0
176
     1
 62
     7
420
 16777215
176
     1
 90
        2
176
     1
 90
        2
176
     1
 62
     7
176
     1
 62
     7
176
     1
 90
        1
176
     1
 90
        1
176
     1
 40
40.0
176
     1
 90
        8
176
     1
 62
     7
176
     1
 40
1.0
176
     1
 90
        1
176
     1
 90
        6
176
     1
 90
        2
176
     1
 62
     7
176
     1
 90
        3
176
     1
 90
        0
176
     1
 90
        0
176
     1
290
     0
176
     1
 90
        1
176
     1
 40
0.0
176
     1
 90
        0
176
     1
290
     0
176
     1
290
     1
176
     1
290
     1
176
     1
290
     0
176
     1
290
     0
176
     1
290
     0
176
     1
290
     0
176
     1
290
     0
176
     1
290
     0
176
     1
 90
       50
176
     1
 40
0.0
176
     1
 40
1.0
176
     1
 90
        0
176
     1
 62
    18
420
        0
176
     1
 90
       50
176
     1
 90
        3
176
     1
 62
     5
420
      255
176
     1
290
     0
176
     1
 90
       50
176
     1
 90
       50
176
     1
 90
       50
176
     1
290
     0
176
     1
 90
       50
176
     1
 62
   256
176
     0
 40
1.0
176
     0
 90
        2
176
     1
  1
strokes_ogs.tif
176
     1
290
     0
176
     1
 40
1.0
176
     1
 40
1.0
176
     1
  0
VISUALSTYLE
  5
3F
102
{ACAD_REACTORS
330
2A
102
}
330
2A
100
AcDbVisualStyle
  2
Sketchy
 70
    24
177
     3
291
     0
 70
    58
 90
        1
176
     1
 90
        2
176
     1
 90
        2
176
     1
 90
        0
176
     1
 40
0.6
176
     1
 40
30.0
176
     1
 62
     7
420
 16777215
176
     1
 90
        2
176
     1
 90
        2
176
     1
 62
     7
176
     1
 62
     7
176
     1
 90
        1
176
     1
 90
        1
176
     1
 40
40.0
176
     1
 90
       11
176
     1
 62
     7
176
     1
 40
1.0
176
     1
 90
        1
176
     1
 90
        6
176
     1
 90
        2
176
     1
 62
     7
176
     1
 90
        6
176
     1
 90
        0
176
     1
 90
        0
176
     1
290
     0
176
     1
 90
        1
176
     1
 40
0.0
176
     1
 90
        0
176
     1
290
     0
176
     1
290
     1
176
     1
290
     1
176
     1
290
     0
176
     1
290
     0
176
     1
290
     0
176
     1
290
     0
176
     1
290
     0
176
     1
290
     0
176
     1
 90
       50
176
     1
 40
0.0
176
     1
 40
1.0
176
     1
 90
        0
176
     1
 62
    18
420
        0
176
     1
 90
       50
176
     1
 90
        3
176
     1
 62
     5
420
      255
176
     1
290
     0
176
     1
 90
       50
176
     1
 90
       50
176
     1
 90
       50
176
     1
290
     0
176
     1
 90
       50
176
     1
 62
   256
176
     0
 40
1.0
176
     0
 90
        2
176
     1
  1
strokes_ogs.tif
176
     1
290
     0
176
     1
 40
1.0
176
     1
 40
1.0
176
     1
  0
VISUALSTYLE
  5
37
102
{ACAD_REACTORS
330
2A
102
}
330
2A
100
AcDbVisualStyle
  2
Thicken
 70
    13
177
     3
291
     1
 70
    58
 90
        2
176
     1
 90
        2
176
     1
 90
        0
176
     1
 90
        0
176
     1
 40
0.6
176
     1
 40
30.0
176
     1
 62
     7
420
 16777215
176
     1
 90
        1
176
     1
 90
        4
176
     1
 62
     7
176
     1
 62
   257
176
     1
 90
        1
176
     1
 90
        1
176
     1
 40
1.0
176
     1
 90
       12
176
     1
 62
     7
176
     1
 40
1.0
176
     1
 90
        1
176
     1
 90
        6
176
     1
 90
        2
176
     1
 62
     7
176
     1
 90
        5
176
     1
 90
        0
176
     1
 90
        0
176
     1
290
     0
176
     1
 90
        1
176
     1
 40
0.0
176
     1
 90
        0
176
     1
290
     0
176
     1
290
     1
176
     1
290
     1
176
     1
290
     0
176
     1
290
     0
176
     1
290
     0
176
     1
290
     0
176
     1
290
     0
176
     1
290
     0
176
     1
 90
       50
176
     1
 40
0.0
176
     1
 40
1.0
176
     1
 90
        0
176
     1
 62
    18
420
        0
176
     1
 90
       50
176
     1
 90
        3
176
     1
 62
     5
420
      255
176
     1
290
     0
176
     1
 90
       50
176
     1
 90
       50
176
     1
 90
       50
176
     1
290
     0
176
     1
 90
       50
176
     1
 62
   256
176
     0
 40
1.0
176
     0
 90
        2
176
     1
  1
strokes_ogs.tif
176
     1
290
     0
176
     1
 40
1.0
176
     1
 40
1.0
176
     1
  0
VISUALSTYLE
  5
30
102
{ACAD_REACTORS
330
2A
102
}
330
2A
100
AcDbVisualStyle
  2
Wireframe
 70
     5
177
     3
291
     0
 70
    58
 90
        0
176
     1
 90
        2
176
     1
 90
        0
176
     1
 90
        0
176
     1
 40
0.6
176
     1
 40
30.0
176
     1
 62
     7
420
 16777215
176
     1
 90
        1
176
     1
 90
        4
176
     1
 62
     7
176
     1
 62
   257
176
     1
 90
        1
176
     1
 90
        1
176
     1
 40
1.0
176
     1
 90
        0
176
     1
 62
   257
176
     1
 40
1.0
176
     1
 90
        1
176
     1
 90
        6
176
     1
 90
        2
176
     1
 62
     7
176
     1
 90
        3
176
     1
 90
        0
176
     1
 90
        0
176
     1
290
     0
176
     1
 90
        1
176
     1
 40
0.0
176
     1
 90
        0
176
     1
290
     0
176
     1
290
     1
176
     1
290
     1
176
     1
290
     0
176
     1
290
     0
176
     1
290
     0
176
     1
290
     0
176
     1
290
     0
176
     1
290
     0
176
     1
 90
       50
176
     1
 40
0.0
176
     1
 40
1.0
176
     1
 90
        0
176
     1
 62
    18
420
        0
176
     1
 90
       50
176
     1
 90
        3
176
     1
 62
     5
420
      255
176
     1
290
     0
176
     1
 90
       50
176
     1
 90
       50
176
     1
 90
       50
176
     1
290
     0
176
     1
 90
       50
176
     1
 62
   256
176
     0
 40
1.0
176
     0
 90
        2
176
     1
  1
strokes_ogs.tif
176
     1
290
     0
176
     1
 40
1.0
176
     1
 40
1.0
176
     1
  0
VISUALSTYLE
  5
40
102
{ACAD_REACTORS
330
2A
102
}
330
2A
100
AcDbVisualStyle
  2
X-Ray
 70
    25
177
     3
291
     0
 70
    58
 90
        2
176
     1
 90
        2
176
     1
 90
        1
176
     1
 90
        1
176
     1
 40
0.5
176
     1
 40
30.0
176
     1
 62
     7
420
 16777215
176
     1
 90
        1
176
     1
 90
        0
176
     1
 62
     7
176
     1
 62
   257
176
     1
 90
        1
176
     1
 90
        1
176
     1
 40
1.0
176
     1
 90
        8
176
     1
 62
     7
176
     1
 40
1.0
176
     1
 90
        1
176
     1
 90
        6
176
     1
 90
        2
176
     1
 62
     7
176
     1
 90
        3
176
     1
 90
        0
176
     1
 90
        0
176
     1
290
     0
176
     1
 90
       13
176
     1
 40
0.0
176
     1
 90
        0
176
     1
290
     0
176
     1
290
     1
176
     1
290
     1
176
     1
290
     0
176
     1
290
     0
176
     1
290
     0
176
     1
290
     0
176
     1
290
     0
176
     1
290
     0
176
     1
 90
       50
176
     1
 40
0.0
176
     1
 40
1.0
176
     1
 90
        0
176
     1
 62
    18
420
        0
176
     1
 90
       50
176
     1
 90
        3
176
     1
 62
     5
420
      255
176
     1
290
     0
176
     1
 90
       50
176
     1
 90
       50
176
     1
 90
       50
176
     1
290
     0
176
     1
 90
       50
176
     1
 62
   256
176
     0
 40
1.0
176
     0
 90
        2
176
     1
  1
strokes_ogs.tif
176
     1
290
     0
176
     1
 40
1.0
176
     1
 40
1.0
176
     1
  0
DICTIONARYVAR
  5
597
102
{ACAD_REACTORS
330
596
102
}
330
596
100
DictionaryVariables
280
     0
  1
1:1
  0
DICTIONARYVAR
  5
5A0
102
{ACAD_REACTORS
330
596
102
}
330
596
100
DictionaryVariables
280
     0
  1
3.500000
  0
DICTIONARYVAR
  5
5A1
102
{ACAD_REACTORS
330
596
102
}
330
596
100
DictionaryVariables
280
     0
  1
acadiso.lin
  0
DICTIONARYVAR
  5
59C
102
{ACAD_REACTORS
330
596
102
}
330
596
100
DictionaryVariables
280
     0
  1
Standard
  0
DICTIONARYVAR
  5
59B
102
{ACAD_REACTORS
330
596
102
}
330
596
100
DictionaryVariables
280
     0
  1
Standard
  0
DICTIONARYVAR
  5
59F
102
{ACAD_REACTORS
330
596
102
}
330
596
100
DictionaryVariables
280
     0
  1
0
  0
DICTIONARY
  5
598
330
6A
100
AcDbDictionary
280
     1
281
     1
  3
ACAD_ROUNDTRIP_2008_TABLESTYLE_CELLSTYLEMAP
360
599
  0
CELLSTYLEMAP
  5
599
102
{ACAD_REACTORS
330
598
102
}
330
598
100
AcDbCellStyleMap
 90
        3
300
CELLSTYLE
  1
TABLEFORMAT_BEGIN
 90
        5
170
     1
 91
        0
 92
    32768
 62
   257
 93
        1
300
CONTENTFORMAT
  1
CONTENTFORMAT_BEGIN
 90
        0
 91
        0
 92
        4
 93
        0
300

 40
0.0
140
1.0
 94
        5
 62
     0
340
11
144
6.0
309
CONTENTFORMAT_END
171
     1
301
MARGIN
  1
CELLMARGIN_BEGIN
 40
1.5
 40
1.5
 40
1.5
 40
1.5
 40
1.5
 40
1.5
309
CELLMARGIN_END
 94
        6
 95
        1
302
GRIDFORMAT
  1
GRIDFORMAT_BEGIN
 90
        0
 91
        1
 62
     0
 92
       -2
340
14
 93
        0
 40
0.045
309
GRIDFORMAT_END
 95
        2
302
GRIDFORMAT
  1
GRIDFORMAT_BEGIN
 90
        0
 91
        1
 62
     0
 92
       -2
340
14
 93
        0
 40
0.045
309
GRIDFORMAT_END
 95
        4
302
GRIDFORMAT
  1
GRIDFORMAT_BEGIN
 90
        0
 91
        1
 62
     0
 92
       -2
340
14
 93
        0
 40
0.045
309
GRIDFORMAT_END
 95
        8
302
GRIDFORMAT
  1
GRIDFORMAT_BEGIN
 90
        0
 91
        1
 62
     0
 92
       -2
340
14
 93
        0
 40
0.045
309
GRIDFORMAT_END
 95
       16
302
GRIDFORMAT
  1
GRIDFORMAT_BEGIN
 90
        0
 91
        1
 62
     0
 92
       -2
340
14
 93
        0
 40
0.045
309
GRIDFORMAT_END
 95
       32
302
GRIDFORMAT
  1
GRIDFORMAT_BEGIN
 90
        0
 91
        1
 62
     0
 92
       -2
340
14
 93
        0
 40
0.045
309
GRIDFORMAT_END
309
TABLEFORMAT_END
  1
CELLSTYLE_BEGIN
 90
        1
 91
        1
300
_TITLE
309
CELLSTYLE_END
300
CELLSTYLE
  1
TABLEFORMAT_BEGIN
 90
        5
170
     1
 91
        0
 92
        0
 62
   257
 93
        1
300
CONTENTFORMAT
  1
CONTENTFORMAT_BEGIN
 90
        0
 91
        0
 92
        4
 93
        0
300

 40
0.0
140
1.0
 94
        5
 62
     0
340
11
144
4.5
309
CONTENTFORMAT_END
171
     1
301
MARGIN
  1
CELLMARGIN_BEGIN
 40
1.5
 40
1.5
 40
1.5
 40
1.5
 40
1.5
 40
1.5
309
CELLMARGIN_END
 94
        6
 95
        1
302
GRIDFORMAT
  1
GRIDFORMAT_BEGIN
 90
        0
 91
        1
 62
     0
 92
       -2
340
14
 93
        0
 40
0.045
309
GRIDFORMAT_END
 95
        2
302
GRIDFORMAT
  1
GRIDFORMAT_BEGIN
 90
        0
 91
        1
 62
     0
 92
       -2
340
14
 93
        0
 40
0.045
309
GRIDFORMAT_END
 95
        4
302
GRIDFORMAT
  1
GRIDFORMAT_BEGIN
 90
        0
 91
        1
 62
     0
 92
       -2
340
14
 93
        0
 40
0.045
309
GRIDFORMAT_END
 95
        8
302
GRIDFORMAT
  1
GRIDFORMAT_BEGIN
 90
        0
 91
        1
 62
     0
 92
       -2
340
14
 93
        0
 40
0.045
309
GRIDFORMAT_END
 95
       16
302
GRIDFORMAT
  1
GRIDFORMAT_BEGIN
 90
        0
 91
        1
 62
     0
 92
       -2
340
14
 93
        0
 40
0.045
309
GRIDFORMAT_END
 95
       32
302
GRIDFORMAT
  1
GRIDFORMAT_BEGIN
 90
        0
 91
        1
 62
     0
 92
       -2
340
14
 93
        0
 40
0.045
309
GRIDFORMAT_END
309
TABLEFORMAT_END
  1
CELLSTYLE_BEGIN
 90
        2
 91
        1
300
_HEADER
309
CELLSTYLE_END
300
CELLSTYLE
  1
TABLEFORMAT_BEGIN
 90
        5
170
     1
 91
        0
 92
        0
 62
   257
 93
        1
300
CONTENTFORMAT
  1
CONTENTFORMAT_BEGIN
 90
        0
 91
        0
 92
        4
 93
        0
300

 40
0.0
140
1.0
 94
        2
 62
     0
340
11
144
4.5
309
CONTENTFORMAT_END
171
     1
301
MARGIN
  1
CELLMARGIN_BEGIN
 40
1.5
 40
1.5
 40
1.5
 40
1.5
 40
1.5
 40
1.5
309
CELLMARGIN_END
 94
        6
 95
        1
302
GRIDFORMAT
  1
GRIDFORMAT_BEGIN
 90
        0
 91
        1
 62
     0
 92
       -2
340
14
 93
        0
 40
0.045
309
GRIDFORMAT_END
 95
        2
302
GRIDFORMAT
  1
GRIDFORMAT_BEGIN
 90
        0
 91
        1
 62
     0
 92
       -2
340
14
 93
        0
 40
0.045
309
GRIDFORMAT_END
 95
        4
302
GRIDFORMAT
  1
GRIDFORMAT_BEGIN
 90
        0
 91
        1
 62
     0
 92
       -2
340
14
 93
        0
 40
0.045
309
GRIDFORMAT_END
 95
        8
302
GRIDFORMAT
  1
GRIDFORMAT_BEGIN
 90
        0
 91
        1
 62
     0
 92
       -2
340
14
 93
        0
 40
0.045
309
GRIDFORMAT_END
 95
       16
302
GRIDFORMAT
  1
GRIDFORMAT_BEGIN
 90
        0
 91
        1
 62
     0
 92
       -2
340
14
 93
        0
 40
0.045
309
GRIDFORMAT_END
 95
       32
302
GRIDFORMAT
  1
GRIDFORMAT_BEGIN
 90
        0
 91
        1
 62
     0
 92
       -2
340
14
 93
        0
 40
0.045
309
GRIDFORMAT_END
309
TABLEFORMAT_END
  1
CELLSTYLE_BEGIN
 90
        3
 91
        2
300
_DATA
309
CELLSTYLE_END
  0
ENDSEC
  0
EOF
