999
dxflib 3.7.5.0
  0
SECTION
  2
HEADER
  9
$ACADVER
  1
AC1015
  9
$HANDSEED
  5
FFFF
  9
$ANGBASE
 50
0.0
  9
$ATTMODE
 70
1
  9
$AUNITS
 70
0
  9
$AUPREC
 70
0
  9
$CELTSCALE
 40
1.0
  9
$CHAMFERA
 40
0.0
  9
$CHAMFERB
 40
0.0
  9
$CHAMFERC
 40
0.0
  9
$CHAMFERD
 40
0.0
  9
$CMLJUST
 70
0
  9
$CMLSCALE
 40
1.0
  9
$DIMADEC
 70
0
  9
$DIMALTD
 70
2
  9
$DIMALTF
 40
25.399999999999999
  9
$DIMALTRND
 40
0.0
  9
$DIMALTTD
 70
2
  9
$DIMALTTZ
 70
0
  9
$DIMALTU
 70
2
  9
$DIMALTZ
 70
0
  9
$DIMAPOST
  1

  9
$DIMASZ
 40
2.5
  9
$DIMATFIT
 70
3
  9
$DIMAUNIT
 70
0
  9
$DIMAZIN
 70
2
  9
$DIMCEN
 40
0.09
  9
$DIMDEC
 70
4
  9
$DIMDLE
 40
0.0
  9
$DIMDLI
 40
0.38
  9
$DIMDSEP
 70
46
  9
$DIMEXE
 40
1.25
  9
$DIMEXO
 40
0.625
  9
$DIMFRAC
 70
0
  9
$DIMGAP
 40
0.625
  9
$DIMJUST
 70
0
  9
$DIMLFAC
 40
1.0
  9
$DIMLUNIT
 70
2
  9
$DIMLWD
 70
-2
  9
$DIMLWE
 70
-2
  9
$DIMPOST
  1

  9
$DIMRND
 40
0.0
  9
$DIMSCALE
 40
1.0
  9
$DIMTAD
 70
0
  9
$DIMTDEC
 70
4
  9
$DIMTFAC
 40
1.0
  9
$DIMTM
 40
0.0
  9
$DIMTOLJ
 70
1
  9
$DIMTP
 40
0.0
  9
$DIMTSZ
 40
0.0
  9
$DIMTVP
 40
0.0
  9
$DIMTXT
 40
2.5
  9
$DIMTZIN
 70
0
  9
$DIMZIN
 70
8
  9
$DWGCODEPAGE
  3
ANSI_1252
  9
$ELEVATION
 40
0.0
  9
$EXTMAX
 10
-100000000000000000000.0
 20
-100000000000000000000.0
 30
-100000000000000000000.0
  9
$EXTMIN
 10
100000000000000000000.0
 20
100000000000000000000.0
 30
100000000000000000000.0
  9
$FILLETRAD
 40
0.5
  9
$INSBASE
 10
0.0
 20
0.0
 30
0.0
  9
$INSUNITS
 70
4
  9
$LIMMAX
 10
12.0
 20
9.0
  9
$LIMMIN
 10
0.0
 20
0.0
  9
$LTSCALE
 40
1.0
  9
$LUNITS
 70
2
  9
$LUPREC
 70
4
  9
$MAXACTVP
 70
2
  9
$PDMODE
 70
0
  9
$PDSIZE
 40
0.0
  9
$PELEVATION
 40
0.0
  9
$PEXTMAX
 10
-100000000000000000000.0
 20
-100000000000000000000.0
 30
-100000000000000000000.0
  9
$PEXTMIN
 10
100000000000000000000.0
 20
100000000000000000000.0
 30
100000000000000000000.0
  9
$PINSBASE
 10
0.0
 20
0.0
 30
0.0
  9
$PLIMMAX
 10
12.0
 20
9.0
  9
$PLIMMIN
 10
0.0
 20
0.0
  9
$PLINEWID
 40
0.0
  9
$PROXYGRAPHICS
 70
1
  9
$PUCSORG
 10
0.0
 20
0.0
 30
0.0
  9
$PUCSXDIR
 10
1.0
 20
0.0
 30
0.0
  9
$PUCSYDIR
 10
0.0
 20
1.0
 30
0.0
  9
$SHADEDGE
 70
3
  9
$SHADEDIF
 70
70
  9
$SKETCHINC
 40
0.1
  9
$SPLINESEGS
 70
8
  9
$SPLINETYPE
 70
6
  9
$SURFTAB1
 70
6
  9
$SURFTAB2
 70
6
  9
$SURFTYPE
 70
6
  9
$SURFU
 70
6
  9
$SURFV
 70
6
  9
$TEXTSIZE
 40
0.2
  9
$THICKNESS
 40
0.0
  9
$TRACEWID
 40
0.05
  9
$TREEDEPTH
 70
3020
  9
$UCSORG
 10
0.0
 20
0.0
 30
0.0
  9
$UCSXDIR
 10
1.0
 20
0.0
 30
0.0
  9
$UCSYDIR
 10
0.0
 20
1.0
 30
0.0
  9
$UNITMODE
 70
0
  9
$USERI1
 70
0
  9
$USERI2
 70
0
  9
$USERI3
 70
0
  9
$USERI4
 70
0
  9
$USERI5
 70
0
  9
$USERR1
 40
0.0
  9
$USERR2
 40
0.0
  9
$USERR3
 40
0.0
  9
$USERR4
 40
0.0
  9
$USERR5
 40
0.0
  0
ENDSEC
  0
SECTION
  2
TABLES
  0
TABLE
  2
VPORT
  5
8
100
AcDbSymbolTable
 70
1
  0
VPORT
  5
30
100
AcDbSymbolTableRecord
100
AcDbViewportTableRecord
  2
*Active
 70
0
 10
0.0
 20
0.0
 11
1.0
 21
1.0
 12
286.30555555555549
 22
148.5
 13
0.0
 23
0.0
 14
10.0
 24
10.0
 15
10.0
 25
10.0
 16
0.0
 26
0.0
 36
1.0
 17
0.0
 27
0.0
 37
0.0
 40
297.0
 41
1.92798353909465
 42
50.0
 43
0.0
 44
0.0
 50
0.0
 51
0.0
 71
0
 72
100
 73
1
 74
3
 75
1
 76
1
 77
0
 78
0
281
0
 65
1
110
0.0
120
0.0
130
0.0
111
1.0
121
0.0
131
0.0
112
0.0
122
1.0
132
0.0
 79
0
146
0.0
  0
ENDTAB
  0
TABLE
  2
LTYPE
  5
5
100
AcDbSymbolTable
 70
50
  0
LTYPE
  5
16
100
AcDbSymbolTableRecord
100
AcDbLinetypeTableRecord
  2
Continuous
 70
0
  3
Solid line
 72
65
 73
0
 40
0.0
  0
LTYPE
  5
31
100
AcDbSymbolTableRecord
100
AcDbLinetypeTableRecord
  2
ACAD_ISO15W100
 70
0
  3
ISO double-dash triple-dot __ __ . . . __ __ . .
 72
65
 73
10
 40
39.0
 49
12.0
 74
0
 49
-3.0
 74
0
 49
12.0
 74
0
 49
-3.0
 74
0
 49
0.0
 74
0
 49
-3.0
 74
0
 49
0.0
 74
0
 49
-3.0
 74
0
 49
0.0
 74
0
 49
-3.0
 74
0
  0
LTYPE
  5
32
100
AcDbSymbolTableRecord
100
AcDbLinetypeTableRecord
  2
HOT_WATER_SUPPLY
 70
0
  3
Hot water supply ---- HW ---- HW ---- HW ----
 72
65
 73
3
 40
22.859999999999999
 49
12.699999999999999
 74
0
 49
-5.0800000000000001
 74
0
 49
-5.0800000000000001
 74
0
  0
LTYPE
  5
33
100
AcDbSymbolTableRecord
100
AcDbLinetypeTableRecord
  2
DIVIDE
 70
0
  3
Divide ____ . . ____ . . ____ . . ____ . . ____
 72
65
 73
6
 40
31.75
 49
12.699999999999999
 74
0
 49
-6.3499999999999996
 74
0
 49
0.0
 74
0
 49
-6.3499999999999996
 74
0
 49
0.0
 74
0
 49
-6.3499999999999996
 74
0
  0
LTYPE
  5
34
100
AcDbSymbolTableRecord
100
AcDbLinetypeTableRecord
  2
ACAD_ISO10W100
 70
0
  3
ISO dash dot __ . __ . __ . __ . __ . __ . __ . 
 72
65
 73
4
 40
18.0
 49
12.0
 74
0
 49
-3.0
 74
0
 49
0.0
 74
0
 49
-3.0
 74
0
  0
LTYPE
  5
35
100
AcDbSymbolTableRecord
100
AcDbLinetypeTableRecord
  2
GAS_LINE
 70
0
  3
Gas line ----GAS----GAS----GAS----GAS----GAS----GAS--
 72
65
 73
3
 40
24.130000000000003
 49
12.699999999999999
 74
0
 49
-5.0800000000000001
 74
0
 49
-6.3499999999999996
 74
0
  0
LTYPE
  5
36
100
AcDbSymbolTableRecord
100
AcDbLinetypeTableRecord
  2
ACAD_ISO04W100
 70
0
  3
ISO long-dash dot ____ . ____ . ____ . ____ . _
 72
65
 73
4
 40
30.0
 49
24.0
 74
0
 49
-3.0
 74
0
 49
0.0
 74
0
 49
-3.0
 74
0
  0
LTYPE
  5
14
100
AcDbSymbolTableRecord
100
AcDbLinetypeTableRecord
  2
ByBlock
 70
0
  3

 72
65
 73
0
 40
0.0
  0
LTYPE
  5
37
100
AcDbSymbolTableRecord
100
AcDbLinetypeTableRecord
  2
CENTER2
 70
0
  3
Center (.5x) ___ _ ___ _ ___ _ ___ _ ___ _ ___
 72
65
 73
4
 40
28.575000000000003
 49
19.050000000000001
 74
0
 49
-3.1749999999999998
 74
0
 49
3.1749999999999998
 74
0
 49
-3.1749999999999998
 74
0
  0
LTYPE
  5
38
100
AcDbSymbolTableRecord
100
AcDbLinetypeTableRecord
  2
ACAD_ISO11W100
 70
0
  3
ISO double-dash dot __ __ . __ __ . __ __ . __ _
 72
65
 73
6
 40
33.0
 49
12.0
 74
0
 49
-3.0
 74
0
 49
12.0
 74
0
 49
-3.0
 74
0
 49
0.0
 74
0
 49
-3.0
 74
0
  0
LTYPE
  5
39
100
AcDbSymbolTableRecord
100
AcDbLinetypeTableRecord
  2
HIDDEN2
 70
0
  3
Hidden (.5x) _ _ _ _ _ _ _ _ _ _ _ _ _ _ _ _ _ 
 72
65
 73
2
 40
4.7624999999999993
 49
3.1749999999999998
 74
0
 49
-1.5874999999999999
 74
0
  0
LTYPE
  5
3A
100
AcDbSymbolTableRecord
100
AcDbLinetypeTableRecord
  2
BORDERX2
 70
0
  3
Border (2x) ____  ____  .  ____  ____  .  ___
 72
65
 73
6
 40
88.899999999999991
 49
25.399999999999999
 74
0
 49
-12.699999999999999
 74
0
 49
25.399999999999999
 74
0
 49
-12.699999999999999
 74
0
 49
0.0
 74
0
 49
-12.699999999999999
 74
0
  0
LTYPE
  5
3B
100
AcDbSymbolTableRecord
100
AcDbLinetypeTableRecord
  2
ACAD_ISO05W100
 70
0
  3
ISO long-dash double-dot ____ .. ____ .. ____ . 
 72
65
 73
6
 40
33.0
 49
24.0
 74
0
 49
-3.0
 74
0
 49
0.0
 74
0
 49
-3.0
 74
0
 49
0.0
 74
0
 49
-3.0
 74
0
  0
LTYPE
  5
3C
100
AcDbSymbolTableRecord
100
AcDbLinetypeTableRecord
  2
DASHDOTX2
 70
0
  3
Dash dot (2x) ____  .  ____  .  ____  .  ___
 72
65
 73
4
 40
50.799999999999997
 49
25.399999999999999
 74
0
 49
-12.699999999999999
 74
0
 49
0.0
 74
0
 49
-12.699999999999999
 74
0
  0
LTYPE
  5
3D
100
AcDbSymbolTableRecord
100
AcDbLinetypeTableRecord
  2
HIDDENX2
 70
0
  3
Hidden (2x) ____ ____ ____ ____ ____ ____ ____ 
 72
65
 73
2
 40
19.049999999999997
 49
12.699999999999999
 74
0
 49
-6.3499999999999996
 74
0
  0
LTYPE
  5
3E
100
AcDbSymbolTableRecord
100
AcDbLinetypeTableRecord
  2
CENTERX2
 70
0
  3
Center (2x) ________  __  ________  __  _____
 72
65
 73
4
 40
101.60000000000001
 49
63.5
 74
0
 49
-12.699999999999999
 74
0
 49
12.699999999999999
 74
0
 49
-12.699999999999999
 74
0
  0
LTYPE
  5
3F
100
AcDbSymbolTableRecord
100
AcDbLinetypeTableRecord
  2
BORDER2
 70
0
  3
Border (.5x) __.__.__.__.__.__.__.__.__.__.__.
 72
65
 73
6
 40
22.224999999999998
 49
6.3499999999999996
 74
0
 49
-3.1749999999999998
 74
0
 49
6.3499999999999996
 74
0
 49
-3.1749999999999998
 74
0
 49
0.0
 74
0
 49
-3.1749999999999998
 74
0
  0
LTYPE
  5
40
100
AcDbSymbolTableRecord
100
AcDbLinetypeTableRecord
  2
DASHDOT2
 70
0
  3
Dash dot (.5x) _._._._._._._._._._._._._._._.
 72
65
 73
4
 40
12.699999999999999
 49
6.3499999999999996
 74
0
 49
-3.1749999999999998
 74
0
 49
0.0
 74
0
 49
-3.1749999999999998
 74
0
  0
LTYPE
  5
41
100
AcDbSymbolTableRecord
100
AcDbLinetypeTableRecord
  2
ACAD_ISO12W100
 70
0
  3
ISO dash double-dot __ . . __ . . __ . . __ . . 
 72
65
 73
6
 40
21.0
 49
12.0
 74
0
 49
-3.0
 74
0
 49
0.0
 74
0
 49
-3.0
 74
0
 49
0.0
 74
0
 49
-3.0
 74
0
  0
LTYPE
  5
42
100
AcDbSymbolTableRecord
100
AcDbLinetypeTableRecord
  2
ACAD_ISO07W100
 70
0
  3
ISO dot . . . . . . . . . . . . . . . . . . . . 
 72
65
 73
2
 40
3.0
 49
0.0
 74
0
 49
-3.0
 74
0
  0
LTYPE
  5
43
100
AcDbSymbolTableRecord
100
AcDbLinetypeTableRecord
  2
ACAD_ISO06W100
 70
0
  3
ISO long-dash triple-dot ____ ... ____ ... ____
 72
65
 73
8
 40
36.0
 49
24.0
 74
0
 49
-3.0
 74
0
 49
0.0
 74
0
 49
-3.0
 74
0
 49
0.0
 74
0
 49
-3.0
 74
0
 49
0.0
 74
0
 49
-3.0
 74
0
  0
LTYPE
  5
44
100
AcDbSymbolTableRecord
100
AcDbLinetypeTableRecord
  2
CENTER
 70
0
  3
Center ____ _ ____ _ ____ _ ____ _ ____ _ ____
 72
65
 73
4
 40
50.800000000000004
 49
31.75
 74
0
 49
-6.3499999999999996
 74
0
 49
6.3499999999999996
 74
0
 49
-6.3499999999999996
 74
0
  0
LTYPE
  5
45
100
AcDbSymbolTableRecord
100
AcDbLinetypeTableRecord
  2
HIDDEN
 70
0
  3
Hidden __ __ __ __ __ __ __ __ __ __ __ __ __ __
 72
65
 73
2
 40
9.5249999999999986
 49
6.3499999999999996
 74
0
 49
-3.1749999999999998
 74
0
  0
LTYPE
  5
46
100
AcDbSymbolTableRecord
100
AcDbLinetypeTableRecord
  2
DOTX2
 70
0
  3
Dot (2x) .  .  .  .  .  .  .  .  .  .  .  .  .  .
 72
65
 73
2
 40
12.699999999999999
 49
0.0
 74
0
 49
-12.699999999999999
 74
0
  0
LTYPE
  5
47
100
AcDbSymbolTableRecord
100
AcDbLinetypeTableRecord
  2
PHANTOM
 70
0
  3
Phantom ______  __  __  ______  __  __  ______ 
 72
65
 73
6
 40
63.500000000000007
 49
31.75
 74
0
 49
-6.3499999999999996
 74
0
 49
6.3499999999999996
 74
0
 49
-6.3499999999999996
 74
0
 49
6.3499999999999996
 74
0
 49
-6.3499999999999996
 74
0
  0
LTYPE
  5
48
100
AcDbSymbolTableRecord
100
AcDbLinetypeTableRecord
  2
ACAD_ISO08W100
 70
0
  3
ISO long-dash short-dash ____ __ ____ __ ____ _
 72
65
 73
4
 40
36.0
 49
24.0
 74
0
 49
-3.0
 74
0
 49
6.0
 74
0
 49
-3.0
 74
0
  0
LTYPE
  5
49
100
AcDbSymbolTableRecord
100
AcDbLinetypeTableRecord
  2
DASHEDX2
 70
0
  3
Dashed (2x) ____  ____  ____  ____  ____  ___
 72
65
 73
2
 40
38.099999999999994
 49
25.399999999999999
 74
0
 49
-12.699999999999999
 74
0
  0
LTYPE
  5
4A
100
AcDbSymbolTableRecord
100
AcDbLinetypeTableRecord
  2
DRAINAGE
 70
0
  3
Drainage ---->---->---->----
 72
65
 73
2
 40
10.16
 49
5.0800000000000001
 74
0
 49
5.0800000000000001
 74
0
  0
LTYPE
  5
4B
100
AcDbSymbolTableRecord
100
AcDbLinetypeTableRecord
  2
ACAD_ISO02W100
 70
0
  3
ISO dash __ __ __ __ __ __ __ __ __ __ __ __ __
 72
65
 73
2
 40
15.0
 49
12.0
 74
0
 49
-3.0
 74
0
  0
LTYPE
  5
4C
100
AcDbSymbolTableRecord
100
AcDbLinetypeTableRecord
  2
PHANTOM2
 70
0
  3
Phantom (.5x) ___ _ _ ___ _ _ ___ _ _ ___ _ _
 72
65
 73
6
 40
31.750000000000004
 49
15.875
 74
0
 49
-3.1749999999999998
 74
0
 49
3.1749999999999998
 74
0
 49
-3.1749999999999998
 74
0
 49
3.1749999999999998
 74
0
 49
-3.1749999999999998
 74
0
  0
LTYPE
  5
4D
100
AcDbSymbolTableRecord
100
AcDbLinetypeTableRecord
  2
DASHED2
 70
0
  3
Dashed (.5x) _ _ _ _ _ _ _ _ _ _ _ _ _ _ _ _ _ 
 72
65
 73
2
 40
9.5249999999999986
 49
6.3499999999999996
 74
0
 49
-3.1749999999999998
 74
0
  0
LTYPE
  5
4E
100
AcDbSymbolTableRecord
100
AcDbLinetypeTableRecord
  2
ACAD_ISO09W100
 70
0
  3
ISO long-dash double-short-dash ____ __ __ ____
 72
65
 73
6
 40
45.0
 49
24.0
 74
0
 49
-3.0
 74
0
 49
6.0
 74
0
 49
-3.0
 74
0
 49
6.0
 74
0
 49
-3.0
 74
0
  0
LTYPE
  5
4F
100
AcDbSymbolTableRecord
100
AcDbLinetypeTableRecord
  2
ACAD_ISO13W100
 70
0
  3
ISO double-dash double-dot __ __ . . __ __ . . _
 72
65
 73
8
 40
36.0
 49
12.0
 74
0
 49
-3.0
 74
0
 49
12.0
 74
0
 49
-3.0
 74
0
 49
0.0
 74
0
 49
-3.0
 74
0
 49
0.0
 74
0
 49
-3.0
 74
0
  0
LTYPE
  5
50
100
AcDbSymbolTableRecord
100
AcDbLinetypeTableRecord
  2
TRACKS
 70
0
  3
Tracks -|-|-|-|-|-|-|-|-|-|-|-|-|-|-|-|-|-|-|-|-|-|-|-|-
 72
65
 73
2
 40
7.6200000000000001
 49
3.8100000000000001
 74
0
 49
3.8100000000000001
 74
0
  0
LTYPE
  5
51
100
AcDbSymbolTableRecord
100
AcDbLinetypeTableRecord
  2
DRAINAGE2
 70
0
  3
Drainage reversed----<----<----<----
 72
65
 73
2
 40
10.16
 49
5.0800000000000001
 74
0
 49
5.0800000000000001
 74
0
  0
LTYPE
  5
52
100
AcDbSymbolTableRecord
100
AcDbLinetypeTableRecord
  2
DOT2
 70
0
  3
Dot (.5x) ........................................
 72
65
 73
2
 40
3.1749999999999998
 49
0.0
 74
0
 49
-3.1749999999999998
 74
0
  0
LTYPE
  5
53
100
AcDbSymbolTableRecord
100
AcDbLinetypeTableRecord
  2
ZIGZAG
 70
0
  3
Zig zag /\/\/\/\/\/\/\/\/\/\/\/\/\/\/\/\/\/\/\/\/\/\/\/
 72
65
 73
4
 40
20.32254
 49
0.00254
 74
0
 49
-5.0800000000000001
 74
0
 49
-10.16
 74
0
 49
-5.0800000000000001
 74
0
  0
LTYPE
  5
54
100
AcDbSymbolTableRecord
100
AcDbLinetypeTableRecord
  2
DASHED
 70
0
  3
Dashed __ __ __ __ __ __ __ __ __ __ __ __ __ _
 72
65
 73
2
 40
19.049999999999997
 49
12.699999999999999
 74
0
 49
-6.3499999999999996
 74
0
  0
LTYPE
  5
55
100
AcDbSymbolTableRecord
100
AcDbLinetypeTableRecord
  2
ACAD_ISO14W100
 70
0
  3
ISO dash triple-dot __ . . . __ . . . __ . . . _
 72
65
 73
8
 40
24.0
 49
12.0
 74
0
 49
-3.0
 74
0
 49
0.0
 74
0
 49
-3.0
 74
0
 49
0.0
 74
0
 49
-3.0
 74
0
 49
0.0
 74
0
 49
-3.0
 74
0
  0
LTYPE
  5
56
100
AcDbSymbolTableRecord
100
AcDbLinetypeTableRecord
  2
PHANTOMX2
 70
0
  3
Phantom (2x) ____________    ____    ____   _
 72
65
 73
6
 40
127.00000000000001
 49
63.5
 74
0
 49
-12.699999999999999
 74
0
 49
12.699999999999999
 74
0
 49
-12.699999999999999
 74
0
 49
12.699999999999999
 74
0
 49
-12.699999999999999
 74
0
  0
LTYPE
  5
57
100
AcDbSymbolTableRecord
100
AcDbLinetypeTableRecord
  2
DIVIDEX2
 70
0
  3
Divide (2x) ________  .  .  ________  .  .  _
 72
65
 73
6
 40
63.5
 49
25.399999999999999
 74
0
 49
-12.699999999999999
 74
0
 49
0.0
 74
0
 49
-12.699999999999999
 74
0
 49
0.0
 74
0
 49
-12.699999999999999
 74
0
  0
LTYPE
  5
58
100
AcDbSymbolTableRecord
100
AcDbLinetypeTableRecord
  2
BORDER
 70
0
  3
Border __ __ . __ __ . __ __ . __ __ . __ __ .
 72
65
 73
6
 40
44.449999999999996
 49
12.699999999999999
 74
0
 49
-6.3499999999999996
 74
0
 49
12.699999999999999
 74
0
 49
-6.3499999999999996
 74
0
 49
0.0
 74
0
 49
-6.3499999999999996
 74
0
  0
LTYPE
  5
59
100
AcDbSymbolTableRecord
100
AcDbLinetypeTableRecord
  2
DIVIDE2
 70
0
  3
Divide (.5x) __..__..__..__..__..__..__..__.._
 72
65
 73
6
 40
15.875
 49
6.3499999999999996
 74
0
 49
-3.1749999999999998
 74
0
 49
0.0
 74
0
 49
-3.1749999999999998
 74
0
 49
0.0
 74
0
 49
-3.1749999999999998
 74
0
  0
LTYPE
  5
5A
100
AcDbSymbolTableRecord
100
AcDbLinetypeTableRecord
  2
DOT
 70
0
  3
Dot . . . . . . . . . . . . . . . . . . . . . . . .
 72
65
 73
2
 40
6.3499999999999996
 49
0.0
 74
0
 49
-6.3499999999999996
 74
0
  0
LTYPE
  5
5B
100
AcDbSymbolTableRecord
100
AcDbLinetypeTableRecord
  2
DASHDOT
 70
0
  3
Dash dot __ . __ . __ . __ . __ . __ . __ . __
 72
65
 73
4
 40
25.399999999999999
 49
12.699999999999999
 74
0
 49
-6.3499999999999996
 74
0
 49
0.0
 74
0
 49
-6.3499999999999996
 74
0
  0
LTYPE
  5
5C
100
AcDbSymbolTableRecord
100
AcDbLinetypeTableRecord
  2
FENCELINE1
 70
0
  3
Fenceline circle ----0-----0----0-----0----0-----0--
 72
65
 73
4
 40
36.829999999999998
 49
6.3499999999999996
 74
0
 49
-2.54
 74
0
 49
-2.54
 74
0
 49
25.399999999999999
 74
0
  0
LTYPE
  5
5D
100
AcDbSymbolTableRecord
100
AcDbLinetypeTableRecord
  2
BATTING
 70
0
  3
Batting SSSSSSSSSSSSSSSSSSSSSSSSSSSSSSSSSSSSSSSSSSSSSSS
 72
65
 73
4
 40
10.16254
 49
0.00254
 74
0
 49
-2.54
 74
0
 49
-5.0800000000000001
 74
0
 49
-2.54
 74
0
  0
LTYPE
  5
5E
100
AcDbSymbolTableRecord
100
AcDbLinetypeTableRecord
  2
ACAD_ISO03W100
 70
0
  3
ISO dash space __    __    __    __    __    __
 72
65
 73
2
 40
30.0
 49
12.0
 74
0
 49
-18.0
 74
0
  0
LTYPE
  5
15
100
AcDbSymbolTableRecord
100
AcDbLinetypeTableRecord
  2
ByLayer
 70
0
  3

 72
65
 73
0
 40
0.0
  0
LTYPE
  5
5F
100
AcDbSymbolTableRecord
100
AcDbLinetypeTableRecord
  2
FENCELINE2
 70
0
  3
Fenceline square ----[]-----[]----[]-----[]----[]---
 72
65
 73
4
 40
36.829999999999998
 49
6.3499999999999996
 74
0
 49
-2.54
 74
0
 49
-2.54
 74
0
 49
25.399999999999999
 74
0
  0
ENDTAB
  0
TABLE
  2
LAYER
  5
2
100
AcDbSymbolTable
 70
2
  0
LAYER
  5
60
100
AcDbSymbolTableRecord
100
AcDbLayerTableRecord
  2
layer 2
 70
0
 62
1
420
16711680
  6
Continuous
370
0
390
F
  0
LAYER
  5
10
100
AcDbSymbolTableRecord
100
AcDbLayerTableRecord
  2
0
 70
0
 62
7
420
16777215
  6
Continuous
370
25
390
F
  0
ENDTAB
  0
TABLE
  2
STYLE
  5
3
100
AcDbSymbolTable
 70
1
  0
STYLE
  5
61
100
AcDbSymbolTableRecord
100
AcDbTextStyleTableRecord
  2
Standard
 70
0
 40
0.0
 41
1.0
 50
0.0
 71
0
 42
2.5
  3

  4

1001
ACAD
1000
txt
1071
0
  0
ENDTAB
  0
TABLE
  2
VIEW
  5
6
100
AcDbSymbolTable
 70
0
  0
ENDTAB
  0
TABLE
  2
UCS
  5
7
100
AcDbSymbolTable
 70
0
  0
ENDTAB
  0
TABLE
  2
APPID
  5
9
100
AcDbSymbolTable
 70
1
  0
APPID
  5
12
100
AcDbSymbolTableRecord
100
AcDbRegAppTableRecord
  2
ACAD
 70
0
  0
APPID
  5
62
100
AcDbSymbolTableRecord
100
AcDbRegAppTableRecord
  2
QCAD
 70
0
  0
ENDTAB
  0
TABLE
  2
DIMSTYLE
  5
A
100
AcDbSymbolTable
 70
1
100
AcDbDimStyleTable
 71
0
  0
DIMSTYLE
105
27
100
AcDbSymbolTableRecord
100
AcDbDimStyleTableRecord
  2
Standard
 41
2.5
 42
0.625
 43
3.75
 44
1.25
 70
0
 73
0
 74
0
 77
1
 78
8
140
2.5
141
2.5
143
0.03937007874016
147
0.625
171
3
172
1
271
2
272
2
274
3
278
44
283
0
284
8
340
61
  0
ENDTAB
  0
TABLE
  2
BLOCK_RECORD
  5
1
100
AcDbSymbolTable
 70
1
  0
BLOCK_RECORD
  5
1F
100
AcDbSymbolTableRecord
100
AcDbBlockTableRecord
  2
*Model_Space
340
22
  0
BLOCK_RECORD
  5
1B
100
AcDbSymbolTableRecord
100
AcDbBlockTableRecord
  2
*Paper_Space
340
1E
  0
BLOCK_RECORD
  5
23
100
AcDbSymbolTableRecord
100
AcDbBlockTableRecord
  2
*Paper_Space0
340
26
  0
BLOCK_RECORD
  5
63
100
AcDbSymbolTableRecord
100
AcDbBlockTableRecord
  2
stoyka
340
0
  0
BLOCK_RECORD
  5
64
100
AcDbSymbolTableRecord
100
AcDbBlockTableRecord
  2
block 1
340
0
  0
BLOCK_RECORD
  5
65
100
AcDbSymbolTableRecord
100
AcDbBlockTableRecord
  2
troyka_4x4
340
0
  0
ENDTAB
  0
ENDSEC
  0
SECTION
  2
BLOCKS
  0
BLOCK
  5
20
100
AcDbEntity
  8
0
100
AcDbBlockBegin
  2
*Model_Space
 70
0
 10
0.0
 20
0.0
 30
0.0
  3
*Model_Space
  1

  0
ENDBLK
  5
21
100
AcDbEntity
  8
0
100
AcDbBlockEnd
  0
BLOCK
  5
1C
100
AcDbEntity
 67
1
  8
0
100
AcDbBlockBegin
  2
*Paper_Space
 70
0
 10
0.0
 20
0.0
 30
0.0
  3
*Paper_Space
  1

  0
ENDBLK
  5
1D
100
AcDbEntity
 67
1
  8
0
100
AcDbBlockEnd
  0
BLOCK
  5
24
100
AcDbEntity
  8
0
100
AcDbBlockBegin
  2
*Paper_Space0
 70
0
 10
0.0
 20
0.0
 30
0.0
  3
*Paper_Space0
  1

  0
ENDBLK
  5
25
100
AcDbEntity
  8
0
100
AcDbBlockEnd
  0
BLOCK
  5
66
100
AcDbEntity
  8
0
100
AcDbBlockBegin
  2
stoyka
 70
0
 10
0.0
 20
0.0
 30
0.0
  3
stoyka
  1

  0
CIRCLE
  5
67
100
AcDbEntity
100
AcDbCircle
  8
layer 2
 62
256
370
-1
 48
1.0
  6
ByLayer
 10
-22.5
 20
22.5
 30
0.0
 40
2.0499999999999998
  0
CIRCLE
  5
68
100
AcDbEntity
100
AcDbCircle
  8
layer 2
 62
256
370
-1
 48
1.0
  6
ByLayer
 10
22.5
 20
22.5
 30
0.0
 40
2.0499999999999998
  0
CIRCLE
  5
69
100
AcDbEntity
100
AcDbCircle
  8
layer 2
 62
256
370
-1
 48
1.0
  6
ByLayer
 10
22.5
 20
-22.5
 30
0.0
 40
2.0499999999999998
  0
CIRCLE
  5
6A
100
AcDbEntity
100
AcDbCircle
  8
layer 2
 62
256
370
-1
 48
1.0
  6
ByLayer
 10
-22.5
 20
-22.5
 30
0.0
 40
2.0499999999999998
  0
CIRCLE
  5
6B
100
AcDbEntity
100
AcDbCircle
  8
layer 2
 62
256
370
-1
 48
1.0
  6
ByLayer
 10
0.0
 20
0.0
 30
0.0
 40
5.0
  0
LINE
  5
6C
100
AcDbEntity
100
AcDbLine
  8
0
 62
256
370
-1
 48
1.0
  6
ByLayer
 10
-30.0
 20
-30.0
 30
0.0
 11
30.0
 21
-30.0
 31
0.0
  0
LINE
  5
6D
100
AcDbEntity
100
AcDbLine
  8
0
 62
256
370
-1
 48
1.0
  6
ByLayer
 10
30.0
 20
-30.0
 30
0.0
 11
30.0
 21
30.0
 31
0.0
  0
LINE
  5
6E
100
AcDbEntity
100
AcDbLine
  8
0
 62
256
370
-1
 48
1.0
  6
ByLayer
 10
30.0
 20
30.0
 30
0.0
 11
-30.0
 21
30.0
 31
0.0
  0
LINE
  5
6F
100
AcDbEntity
100
AcDbLine
  8
0
 62
256
370
-1
 48
1.0
  6
ByLayer
 10
-30.0
 20
30.0
 30
0.0
 11
-30.0
 21
-30.0
 31
0.0
  0
ENDBLK
  5
70
100
AcDbEntity
  8
0
100
AcDbBlockEnd
  0
BLOCK
  5
71
100
AcDbEntity
  8
0
100
AcDbBlockBegin
  2
block 1
 70
0
 10
0.0
 20
0.0
 30
0.0
  3
block 1
  1

  0
CIRCLE
  5
72
100
AcDbEntity
100
AcDbCircle
  8
0
 62
256
370
-1
 48
1.0
  6
ByLayer
 10
0.0
 20
0.0
 30
0.0
 40
15.0
  0
LINE
  5
73
100
AcDbEntity
100
AcDbLine
  8
0
 62
256
370
-1
 48
1.0
  6
ByLayer
 10
-30.0
 20
30.0
 30
0.0
 11
-30.0
 21
-30.0
 31
0.0
  0
CIRCLE
  5
74
100
AcDbEntity
100
AcDbCircle
  8
layer 2
 62
256
370
-1
 48
1.0
  6
ByLayer
 10
-22.5
 20
22.5
 30
0.0
 40
2.0499999999999998
  0
CIRCLE
  5
75
100
AcDbEntity
100
AcDbCircle
  8
layer 2
 62
256
370
-1
 48
1.0
  6
ByLayer
 10
22.5
 20
22.5
 30
0.0
 40
2.0499999999999998
  0
CIRCLE
  5
76
100
AcDbEntity
100
AcDbCircle
  8
layer 2
 62
256
370
-1
 48
1.0
  6
ByLayer
 10
22.5
 20
-22.5
 30
0.0
 40
2.0499999999999998
  0
CIRCLE
  5
77
100
AcDbEntity
100
AcDbCircle
  8
layer 2
 62
256
370
-1
 48
1.0
  6
ByLayer
 10
-22.5
 20
-22.5
 30
0.0
 40
2.0499999999999998
  0
CIRCLE
  5
78
100
AcDbEntity
100
AcDbCircle
  8
layer 2
 62
256
370
-1
 48
1.0
  6
ByLayer
 10
0.0
 20
0.0
 30
0.0
 40
5.0
  0
LINE
  5
79
100
AcDbEntity
100
AcDbLine
  8
0
 62
256
370
-1
 48
1.0
  6
ByLayer
 10
-30.0
 20
-30.0
 30
0.0
 11
30.0
 21
-30.0
 31
0.0
  0
LINE
  5
7A
100
AcDbEntity
100
AcDbLine
  8
0
 62
256
370
-1
 48
1.0
  6
ByLayer
 10
30.0
 20
-30.0
 30
0.0
 11
30.0
 21
30.0
 31
0.0
  0
LINE
  5
7B
100
AcDbEntity
100
AcDbLine
  8
0
 62
256
370
-1
 48
1.0
  6
ByLayer
 10
30.0
 20
30.0
 30
0.0
 11
-30.0
 21
30.0
 31
0.0
  0
ENDBLK
  5
7C
100
AcDbEntity
  8
0
100
AcDbBlockEnd
  0
BLOCK
  5
7D
100
AcDbEntity
  8
0
100
AcDbBlockBegin
  2
troyka_4x4
 70
0
 10
0.0
 20
0.0
 30
0.0
  3
troyka_4x4
  1

  0
LWPOLYLINE
  5
7E
  8
0
 62
256
370
-1
 48
1.0
  6
ByLayer
100
AcDbEntity
100
AcDbPolyline
 90
149
 70
1
 10
22.50000000000011
 20
2.6000000000000232
 30
0.0
 42
-0.41421356
 10
22.400000000000091
 20
2.5000000000001141
 30
0.0
 10
19.692031019999941
 20
2.5000000000001141
 30
0.0
 42
0.41421356
 10
17.5
 20
2.5000000000001141
 30
0.0
 42
0.41421356
 10
17.49999999999989
 20
0.3079689800000551
 30
0.0
 10
17.5
 20
-0.3079689800000551
 30
0.0
 42
0.41421356
 10
17.5
 20
-2.5000000000001141
 30
0.0
 42
0.41421356
 10
19.692031019999941
 20
-2.5000000000001141
 30
0.0
 10
22.399999999999981
 20
-2.5000000000001141
 30
0.0
 42
-0.41421356
 10
22.499999999999769
 20
-2.6000000000000232
 30
0.0
 10
22.5
 20
-7.3999999999999773
 30
0.0
 42
-0.41421356
 10
22.400000000000091
 20
-7.5000000000001137
 30
0.0
 10
19.692031019999941
 20
-7.5000000000001137
 30
0.0
 42
0.41421356
 10
17.49999999999989
 20
-7.5000000000001137
 30
0.0
 42
0.41421356
 10
17.49999999999989
 20
-9.6920310199999449
 30
0.0
 10
17.5
 20
-10.30796898000006
 30
0.0
 42
0.41421356
 10
17.50000000000011
 20
-12.50000000000011
 30
0.0
 42
0.41421356
 10
19.692031019999831
 20
-12.50000000000011
 30
0.0
 10
22.399999999999981
 20
-12.50000000000011
 30
0.0
 42
-0.41421356
 10
22.50000000000011
 20
-12.600000000000019
 30
0.0
 10
22.5
 20
-17.400000000000201
 30
0.0
 42
-0.41421356
 10
22.399999999999981
 20
-17.50000000000006
 30
0.0
 10
19.692031019999941
 20
-17.50000000000011
 30
0.0
 42
0.41421356
 10
17.49999999999989
 20
-17.50000000000011
 30
0.0
 42
0.41421356
 10
17.49999999999989
 20
-19.692031020000169
 30
0.0
 10
17.49999999999989
 20
-22.400000000000201
 30
0.0
 42
-0.41421356
 10
17.399999999999981
 20
-22.50000000000011
 30
0.0
 10
12.600000000000019
 20
-22.50000000000011
 30
0.0
 42
-0.41421356
 10
12.49999999999989
 20
-22.399999999999981
 30
0.0
 10
12.5
 20
-19.692031020000002
 30
0.0
 42
0.41421356
 10
12.5
 20
-17.50000000000011
 30
0.0
 42
0.41421356
 10
10.30796897999994
 20
-17.50000000000011
 30
0.0
 10
9.6920310199999449
 20
-17.50000000000011
 30
0.0
 42
0.41421356
 10
7.4999999999998863
 20
-17.50000000000011
 30
0.0
 42
0.41421356
 10
7.4999999999998863
 20
-19.692031019999941
 30
0.0
 10
7.4999999999998863
 20
-22.399999999999981
 30
0.0
 42
-0.41421356
 10
7.4000000000000909
 20
-22.50000000000011
 30
0.0
 10
2.5999999999999091
 20
-22.50000000000011
 30
0.0
 42
-0.41421356
 10
2.4999999999998859
 20
-22.400000000000201
 30
0.0
 10
2.4999999999997731
 20
-19.692031019999892
 30
0.0
 42
0.41421356
 10
2.4999999999998859
 20
-17.50000000000011
 30
0.0
 42
0.41421356
 10
0.3079689799999414
 20
-17.50000000000011
 30
0.0
 10
-0.3079689800000551
 20
-17.49999999999989
 30
0.0
 42
0.41421356
 10
-2.5000000000001141
 20
-17.50000000000011
 30
0.0
 42
0.41421356
 10
-2.5000000000001141
 20
-19.692031019999892
 30
0.0
 10
-2.5000000000001141
 20
-22.399999999999981
 30
0.0
 42
-0.41421356
 10
-2.5999999999999091
 20
-22.50000000000011
 30
0.0
 10
-7.3999999999999773
 20
-22.49999999999989
 30
0.0
 42
-0.41421356
 10
-7.4999999999998286
 20
-22.399999999999981
 30
0.0
 10
-7.5
 20
-19.692031019999892
 30
0.0
 42
0.41421356
 10
-7.5000000000000568
 20
-17.50000000000011
 30
0.0
 42
0.41421356
 10
-9.6920310200001722
 20
-17.50000000000011
 30
0.0
 10
-10.30796898000006
 20
-17.50000000000011
 30
0.0
 42
0.41421356
 10
-12.50000000000011
 20
-17.50000000000011
 30
0.0
 42
0.41421356
 10
-12.50000000000006
 20
-19.692031019999941
 30
0.0
 10
-12.50000000000006
 20
-22.400000000000201
 30
0.0
 42
-0.41421356
 10
-12.599999999999969
 20
-22.50000000000011
 30
0.0
 10
-17.400000000000031
 20
-22.50000000000011
 30
0.0
 42
-0.41421356
 10
-17.49999999999989
 20
-22.399999999999981
 30
0.0
 10
-17.49999999999989
 20
-19.692031019999941
 30
0.0
 42
0.41421356
 10
-17.49999999999989
 20
-17.49999999999989
 30
0.0
 42
0.41421356
 10
-19.692031020000059
 20
-17.49999999999989
 30
0.0
 10
-22.400000000000031
 20
-17.49999999999989
 30
0.0
 42
-0.41421356
 10
-22.50000000000006
 20
-17.399999999999981
 30
0.0
 10
-22.50000000000006
 20
-12.600000000000019
 30
0.0
 42
-0.41421356
 10
-22.400000000000031
 20
-12.50000000000011
 30
0.0
 10
-19.692031020000002
 20
-12.50000000000011
 30
0.0
 42
0.41421356
 10
-17.50000000000006
 20
-12.50000000000011
 30
0.0
 42
0.41421356
 10
-17.50000000000006
 20
-10.30796898000006
 30
0.0
 10
-17.49999999999989
 20
-9.6920310199999449
 30
0.0
 42
0.41421356
 10
-17.50000000000006
 20
-7.5000000000001137
 30
0.0
 42
0.41421356
 10
-19.692031020000119
 20
-7.5000000000001137
 30
0.0
 10
-22.400000000000151
 20
-7.5000000000001137
 30
0.0
 42
-0.41421356
 10
-22.49999999999994
 20
-7.3999999999999773
 30
0.0
 10
-22.50000000000011
 20
-2.6000000000000232
 30
0.0
 42
-0.41421356
 10
-22.399999999999981
 20
-2.5000000000001141
 30
0.0
 10
-19.692031020000059
 20
-2.5000000000001141
 30
0.0
 42
0.41421356
 10
-17.49999999999994
 20
-2.5000000000001141
 30
0.0
 42
0.41421356
 10
-17.5
 20
-0.3079689800000551
 30
0.0
 10
-17.50000000000006
 20
0.3079689799998278
 30
0.0
 42
0.41421356
 10
-17.50000000000011
 20
2.5000000000001141
 30
0.0
 42
0.41421356
 10
-19.692031019999831
 20
2.5000000000001141
 30
0.0
 10
-22.39999999999992
 20
2.5000000000001141
 30
0.0
 42
-0.41421356
 10
-22.50000000000006
 20
2.6000000000000232
 30
0.0
 10
-22.5
 20
7.3999999999997499
 30
0.0
 42
-0.41421356
 10
-22.400000000000091
 20
7.5000000000001137
 30
0.0
 10
-19.692031020000059
 20
7.5000000000001137
 30
0.0
 42
0.41421356
 10
-17.5
 20
7.5000000000001137
 30
0.0
 42
0.41421356
 10
-17.49999999999989
 20
9.6920310200001722
 30
0.0
 10
-17.5
 20
10.30796898000006
 30
0.0
 42
0.41421356
 10
-17.50000000000006
 20
12.50000000000011
 30
0.0
 42
0.41421356
 10
-19.692031020000119
 20
12.50000000000011
 30
0.0
 10
-22.399999999999981
 20
12.50000000000011
 30
0.0
 42
-0.41421356
 10
-22.49999999999989
 20
12.599999999999801
 30
0.0
 10
-22.50000000000006
 20
17.399999999999981
 30
0.0
 42
-0.41421356
 10
-22.39999999999986
 20
17.50000000000011
 30
0.0
 10
-19.692031020000059
 20
17.500000000000341
 30
0.0
 42
0.41421356
 10
-17.49999999999994
 20
17.50000000000011
 30
0.0
 42
0.41421356
 10
-17.499999999999769
 20
19.692031019999721
 30
0.0
 10
-17.49999999999994
 20
22.399999999999981
 30
0.0
 42
-0.41421356
 10
-17.400000000000031
 20
22.49999999999989
 30
0.0
 10
-12.599999999999969
 20
22.500000000000171
 30
0.0
 42
-0.41421356
 10
-12.5
 20
22.399999999999981
 30
0.0
 10
-12.49999999999989
 20
19.692031019999941
 30
0.0
 42
0.41421356
 10
-12.50000000000006
 20
17.50000000000011
 30
0.0
 42
0.41421356
 10
-10.30796898000006
 20
17.50000000000011
 30
0.0
 10
-9.6920310200001154
 20
17.50000000000011
 30
0.0
 42
0.41421356
 10
-7.5000000000000568
 20
17.49999999999989
 30
0.0
 42
0.41421356
 10
-7.5
 20
19.692031019999941
 30
0.0
 10
-7.4999999999998286
 20
22.399999999999981
 30
0.0
 42
-0.41421356
 10
-7.4000000000000341
 20
22.50000000000011
 30
0.0
 10
-2.5999999999999091
 20
22.50000000000011
 30
0.0
 42
-0.41421356
 10
-2.5
 20
22.399999999999981
 30
0.0
 10
-2.5000000000001141
 20
19.692031020000002
 30
0.0
 42
0.41421356
 10
-2.4999999999998859
 20
17.50000000000011
 30
0.0
 42
0.41421356
 10
-0.3079689800000551
 20
17.50000000000011
 30
0.0
 10
0.3079689799999414
 20
17.49999999999989
 30
0.0
 42
0.41421356
 10
2.5
 20
17.50000000000011
 30
0.0
 42
0.41421356
 10
2.5
 20
19.692031019999941
 30
0.0
 10
2.4999999999998859
 20
22.399999999999981
 30
0.0
 42
-0.41421356
 10
2.600000000000136
 20
22.50000000000011
 30
0.0
 10
7.3999999999999773
 20
22.50000000000011
 30
0.0
 42
-0.41421356
 10
7.4999999999998863
 20
22.399999999999981
 30
0.0
 10
7.4999999999998863
 20
19.692031019999941
 30
0.0
 42
0.41421356
 10
7.5
 20
17.49999999999989
 30
0.0
 42
0.41421356
 10
9.6920310199999449
 20
17.49999999999989
 30
0.0
 10
10.30796897999994
 20
17.50000000000011
 30
0.0
 42
0.41421356
 10
12.50000000000011
 20
17.50000000000011
 30
0.0
 42
0.41421356
 10
12.49999999999989
 20
19.692031019999941
 30
0.0
 10
12.5
 20
22.399999999999981
 30
0.0
 42
-0.41421356
 10
12.60000000000014
 20
22.50000000000011
 30
0.0
 10
17.400000000000091
 20
22.50000000000011
 30
0.0
 42
-0.41421356
 10
17.50000000000011
 20
22.399999999999981
 30
0.0
 10
17.5
 20
19.692031019999941
 30
0.0
 42
0.41421356
 10
17.49999999999989
 20
17.49999999999989
 30
0.0
 42
0.41421356
 10
19.692031019999941
 20
17.500000000000171
 30
0.0
 10
22.400000000000091
 20
17.50000000000011
 30
0.0
 42
-0.41421356
 10
22.50000000000011
 20
17.399999999999981
 30
0.0
 10
22.499999999999769
 20
12.60000000000008
 30
0.0
 42
-0.41421356
 10
22.400000000000091
 20
12.50000000000011
 30
0.0
 10
19.692031019999941
 20
12.50000000000011
 30
0.0
 42
0.41421356
 10
17.49999999999989
 20
12.50000000000011
 30
0.0
 42
0.41421356
 10
17.5
 20
10.30796898
 30
0.0
 10
17.5
 20
9.6920310199999449
 30
0.0
 42
0.41421356
 10
17.49999999999989
 20
7.4999999999998863
 30
0.0
 42
0.41421356
 10
19.692031019999941
 20
7.4999999999998863
 30
0.0
 10
22.400000000000091
 20
7.4999999999998863
 30
0.0
 42
-0.41421356
 10
22.50000000000011
 20
7.3999999999999773
 30
0.0
 10
22.50000000000011
 20
2.6000000000000232
 30
0.0
  0
ENDBLK
  5
7F
100
AcDbEntity
  8
0
100
AcDbBlockEnd
  0
ENDSEC
  0
SECTION
  2
ENTITIES
  0
CIRCLE
  5
80
100
AcDbEntity
100
AcDbCircle
  8
layer 2
 62
256
370
-1
 48
1.0
  6
ByLayer
 10
-900.0
 20
-293.74999999999977
 30
0.0
 40
5.0
  0
CIRCLE
  5
81
100
AcDbEntity
100
AcDbCircle
  8
layer 2
 62
256
370
-1
 48
1.0
  6
ByLayer
 10
-791.74682452694515
 20
-106.2499999999999
 30
0.0
 40
5.0
  0
CIRCLE
  5
82
100
AcDbEntity
100
AcDbCircle
  8
layer 2
 62
256
370
-1
 48
1.0
  6
ByLayer
 10
-1008.253175473055
 20
-106.2499999999999
 30
0.0
 40
5.0
  0
CIRCLE
  5
83
100
AcDbEntity
100
AcDbCircle
  8
layer 2
 62
256
370
-1
 48
1.0
  6
ByLayer
 10
-950.79999998711992
 20
-184.49179579052981
 30
0.0
 40
1.25
  0
CIRCLE
  5
84
100
AcDbEntity
100
AcDbCircle
  8
layer 2
 62
256
370
-1
 48
1.0
  6
ByLayer
 10
-950.79999998711992
 20
-209.8917957929697
 30
0.0
 40
1.25
  0
CIRCLE
  5
85
100
AcDbEntity
100
AcDbCircle
  8
layer 2
 62
256
370
-1
 48
1.0
  6
ByLayer
 10
-925.39999999355996
 20
-209.89179579296979
 30
0.0
 40
1.25
  0
CIRCLE
  5
86
100
AcDbEntity
100
AcDbCircle
  8
layer 2
 62
256
370
-1
 48
1.0
  6
ByLayer
 10
-925.39999999355996
 20
-184.49179579052981
 30
0.0
 40
1.25
  0
CIRCLE
  5
87
100
AcDbEntity
100
AcDbCircle
  8
layer 2
 62
256
370
-1
 48
1.0
  6
ByLayer
 10
-900.0
 20
-209.89179579296979
 30
0.0
 40
1.25
  0
CIRCLE
  5
88
100
AcDbEntity
100
AcDbCircle
  8
layer 2
 62
256
370
-1
 48
1.0
  6
ByLayer
 10
-900.0
 20
-184.49179579052981
 30
0.0
 40
1.25
  0
CIRCLE
  5
89
100
AcDbEntity
100
AcDbCircle
  8
layer 2
 62
256
370
-1
 48
1.0
  6
ByLayer
 10
-874.60000000644004
 20
-209.89179579296979
 30
0.0
 40
1.25
  0
CIRCLE
  5
8A
100
AcDbEntity
100
AcDbCircle
  8
layer 2
 62
256
370
-1
 48
1.0
  6
ByLayer
 10
-874.60000000644004
 20
-184.49179579052981
 30
0.0
 40
1.25
  0
CIRCLE
  5
8B
100
AcDbEntity
100
AcDbCircle
  8
layer 2
 62
256
370
-1
 48
1.0
  6
ByLayer
 10
-849.20000001288008
 20
-209.89179579296979
 30
0.0
 40
1.25
  0
CIRCLE
  5
8C
100
AcDbEntity
100
AcDbCircle
  8
layer 2
 62
256
370
-1
 48
1.0
  6
ByLayer
 10
-849.20000001288008
 20
-184.49179579052981
 30
0.0
 40
1.25
  0
CIRCLE
  5
8D
100
AcDbEntity
100
AcDbCircle
  8
layer 2
 62
256
370
-1
 48
1.0
  6
ByLayer
 10
-950.79999998711992
 20
-159.09179578808971
 30
0.0
 40
1.25
  0
CIRCLE
  5
8E
100
AcDbEntity
100
AcDbCircle
  8
layer 2
 62
256
370
-1
 48
1.0
  6
ByLayer
 10
-925.39999999355996
 20
-159.0917957880898
 30
0.0
 40
1.25
  0
CIRCLE
  5
8F
100
AcDbEntity
100
AcDbCircle
  8
layer 2
 62
256
370
-1
 48
1.0
  6
ByLayer
 10
-900.0
 20
-159.09179578808971
 30
0.0
 40
1.25
  0
CIRCLE
  5
90
100
AcDbEntity
100
AcDbCircle
  8
layer 2
 62
256
370
-1
 48
1.0
  6
ByLayer
 10
-874.60000000644004
 20
-159.0917957880898
 30
0.0
 40
1.25
  0
CIRCLE
  5
91
100
AcDbEntity
100
AcDbCircle
  8
layer 2
 62
256
370
-1
 48
1.0
  6
ByLayer
 10
-849.20000001288008
 20
-159.0917957880898
 30
0.0
 40
1.25
  0
CIRCLE
  5
92
100
AcDbEntity
100
AcDbCircle
  8
layer 2
 62
256
370
-1
 48
1.0
  6
ByLayer
 10
-880.99792774910691
 20
-267.17161796719648
 30
0.0
 40
1.6000000000000001
  0
CIRCLE
  5
93
100
AcDbEntity
100
AcDbCircle
  8
layer 2
 62
256
370
-1
 48
1.0
  6
ByLayer
 10
-879.69792774910661
 20
-218.97161796719681
 30
0.0
 40
1.6000000000000001
  0
CIRCLE
  5
94
100
AcDbEntity
100
AcDbCircle
  8
layer 2
 62
256
370
-1
 48
1.0
  6
ByLayer
 10
-931.79792773614315
 20
-224.07161796719689
 30
0.0
 40
1.6000000000000001
  0
CIRCLE
  5
95
100
AcDbEntity
100
AcDbCircle
  8
layer 2
 62
256
370
-1
 48
1.0
  6
ByLayer
 10
-931.79792773614281
 20
-251.97161798016
 30
0.0
 40
1.6000000000000001
  0
CIRCLE
  5
96
100
AcDbEntity
100
AcDbCircle
  8
layer 2
 62
256
370
-1
 48
1.0
  6
ByLayer
 10
-305.0
 20
-277.94228634059937
 30
0.0
 40
34.5
  0
CIRCLE
  5
97
100
AcDbEntity
100
AcDbCircle
  8
layer 2
 62
256
370
-1
 48
1.0
  6
ByLayer
 10
-215.00000000000003
 20
-277.94228634059937
 30
0.0
 40
34.5
  0
CIRCLE
  5
98
100
AcDbEntity
100
AcDbCircle
  8
layer 2
 62
256
370
-1
 48
1.0
  6
ByLayer
 10
-170.00000000000003
 20
-200.0
 30
0.0
 40
34.5
  0
CIRCLE
  5
99
100
AcDbEntity
100
AcDbCircle
  8
layer 2
 62
256
370
-1
 48
1.0
  6
ByLayer
 10
-215.00000000000003
 20
-122.05771365940051
 30
0.0
 40
34.5
  0
CIRCLE
  5
9A
100
AcDbEntity
100
AcDbCircle
  8
layer 2
 62
256
370
-1
 48
1.0
  6
ByLayer
 10
-305.0
 20
-122.05771365940051
 30
0.0
 40
34.5
  0
CIRCLE
  5
9B
100
AcDbEntity
100
AcDbCircle
  8
layer 2
 62
256
370
-1
 48
1.0
  6
ByLayer
 10
-260.0
 20
-200.0
 30
0.0
 40
34.5
  0
CIRCLE
  5
9C
100
AcDbEntity
100
AcDbCircle
  8
layer 2
 62
256
370
-1
 48
1.0
  6
ByLayer
 10
-350.0
 20
-200.0
 30
0.0
 40
34.5
  0
CIRCLE
  5
9D
100
AcDbEntity
100
AcDbCircle
  8
layer 2
 62
256
370
-1
 48
1.0
  6
ByLayer
 10
-260.0
 20
-200.0
 30
0.0
 40
160.0
  0
CIRCLE
  5
9E
100
AcDbEntity
100
AcDbCircle
  8
layer 2
 62
256
370
-1
 48
1.0
  6
ByLayer
 10
-260.0
 20
-325.0
 30
0.0
 40
5.0
  0
CIRCLE
  5
9F
100
AcDbEntity
100
AcDbCircle
  8
layer 2
 62
256
370
-1
 48
1.0
  6
ByLayer
 10
-151.74682452694515
 20
-137.50000000000011
 30
0.0
 40
5.0
  0
CIRCLE
  5
A0
100
AcDbEntity
100
AcDbCircle
  8
layer 2
 62
256
370
-1
 48
1.0
  6
ByLayer
 10
-368.25317547305485
 20
-137.5
 30
0.0
 40
5.0
  0
ARC
  5
A1
100
AcDbEntity
  8
layer 2
 62
256
370
-1
 48
1.0
  6
ByLayer
100
AcDbCircle
 10
-791.74682452694503
 20
-106.2499999999998
 30
0.0
 40
34.999999999999908
100
AcDbArc
 50
329.99999999999949
 51
90.000000000000199
  0
LINE
  5
A2
100
AcDbEntity
100
AcDbLine
  8
layer 2
 62
256
370
-1
 48
1.0
  6
ByLayer
 10
-791.74682452694515
 20
-71.249999999999858
 30
0.0
 11
-1008.253175473055
 21
-71.249999999999886
 31
0.0
  0
ARC
  5
A3
100
AcDbEntity
  8
layer 2
 62
256
370
-1
 48
1.0
  6
ByLayer
100
AcDbCircle
 10
-1008.253175473055
 20
-106.2499999999999
 30
0.0
 40
34.999999999999957
100
AcDbArc
 50
89.999999999999616
 51
210.0
  0
LINE
  5
A4
100
AcDbEntity
100
AcDbLine
  8
layer 2
 62
256
370
-1
 48
1.0
  6
ByLayer
 10
-1038.5640646055101
 20
-123.7499999999998
 30
0.0
 11
-930.31088913245549
 21
-311.24999999999977
 31
0.0
  0
ARC
  5
A5
100
AcDbEntity
  8
layer 2
 62
256
370
-1
 48
1.0
  6
ByLayer
100
AcDbCircle
 10
-900.00000000000011
 20
-293.75000000000028
 30
0.0
 40
34.999999999999758
100
AcDbArc
 50
209.99999999999929
 51
330.00000000000068
  0
LINE
  5
A6
100
AcDbEntity
100
AcDbLine
  8
layer 2
 62
256
370
-1
 48
1.0
  6
ByLayer
 10
-869.68911086754474
 20
-311.24999999999977
 30
0.0
 11
-761.43593539448989
 21
-123.7499999999999
 31
0.0
  0
ARC
  5
A7
100
AcDbEntity
  8
layer 2
 62
256
370
-1
 48
1.0
  6
ByLayer
100
AcDbCircle
 10
-930.40000000249347
 20
-189.4917958039033
 30
0.0
 40
3.0000000121533801
100
AcDbArc
 50
0.0
 51
89.999999767888113
  0
LINE
  5
A8
100
AcDbEntity
100
AcDbLine
  8
layer 2
 62
256
370
-1
 48
1.0
  6
ByLayer
 10
-927.39999999034012
 20
-189.49179579174989
 30
0.0
 11
-927.39999999034012
 21
-204.89179579174979
 31
0.0
  0
ARC
  5
A9
100
AcDbEntity
  8
layer 2
 62
256
370
-1
 48
1.0
  6
ByLayer
100
AcDbCircle
 10
-930.40000000249358
 20
-204.89179577959649
 30
0.0
 40
3.0000000121534942
100
AcDbArc
 50
270.00000023211408
 51
0.0
  0
LINE
  5
AA
100
AcDbEntity
100
AcDbLine
  8
layer 2
 62
256
370
-1
 48
1.0
  6
ByLayer
 10
-930.39999999034012
 20
-207.89179579175001
 30
0.0
 11
-945.7999999903401
 21
-207.89179579174979
 31
0.0
  0
ARC
  5
AB
100
AcDbEntity
  8
layer 2
 62
256
370
-1
 48
1.0
  6
ByLayer
100
AcDbCircle
 10
-945.79999997818663
 20
-204.89179577959641
 30
0.0
 40
3.0000000121533241
100
AcDbArc
 50
180.0
 51
269.99999976788592
  0
LINE
  5
AC
100
AcDbEntity
100
AcDbLine
  8
layer 2
 62
256
370
-1
 48
1.0
  6
ByLayer
 10
-948.79999999033998
 20
-204.89179579174979
 30
0.0
 11
-948.7999999903401
 21
-189.49179579174981
 31
0.0
  0
ARC
  5
AD
100
AcDbEntity
  8
layer 2
 62
256
370
-1
 48
1.0
  6
ByLayer
100
AcDbCircle
 10
-945.79999997818663
 20
-189.4917958039033
 30
0.0
 40
3.0000000121534089
100
AcDbArc
 50
90.000000232111887
 51
180.0
  0
LINE
  5
AE
100
AcDbEntity
100
AcDbLine
  8
layer 2
 62
256
370
-1
 48
1.0
  6
ByLayer
 10
-945.79999999033998
 20
-186.49179579174989
 30
0.0
 11
-930.39999999034012
 21
-186.49179579174989
 31
0.0
  0
LINE
  5
AF
100
AcDbEntity
100
AcDbLine
  8
layer 2
 62
256
370
-1
 48
1.0
  6
ByLayer
 10
-930.39999999034012
 20
-186.49179579174989
 30
0.0
 11
-930.39999999034012
 21
-186.49179579174989
 31
0.0
  0
ARC
  5
B0
100
AcDbEntity
  8
layer 2
 62
256
370
-1
 48
1.0
  6
ByLayer
100
AcDbCircle
 10
-905.00000000893351
 20
-189.4917958039033
 30
0.0
 40
3.0000000121533801
100
AcDbArc
 50
0.0
 51
89.999999767888113
  0
LINE
  5
B1
100
AcDbEntity
100
AcDbLine
  8
layer 2
 62
256
370
-1
 48
1.0
  6
ByLayer
 10
-901.99999999678016
 20
-189.49179579174989
 30
0.0
 11
-901.99999999678016
 21
-204.89179579174979
 31
0.0
  0
ARC
  5
B2
100
AcDbEntity
  8
layer 2
 62
256
370
-1
 48
1.0
  6
ByLayer
100
AcDbCircle
 10
-905.00000000893363
 20
-204.89179577959649
 30
0.0
 40
3.0000000121534942
100
AcDbArc
 50
270.00000023211408
 51
0.0
  0
LINE
  5
B3
100
AcDbEntity
100
AcDbLine
  8
layer 2
 62
256
370
-1
 48
1.0
  6
ByLayer
 10
-904.99999999678016
 20
-207.89179579175001
 30
0.0
 11
-920.39999999678014
 21
-207.89179579174979
 31
0.0
  0
ARC
  5
B4
100
AcDbEntity
  8
layer 2
 62
256
370
-1
 48
1.0
  6
ByLayer
100
AcDbCircle
 10
-920.39999998462667
 20
-204.89179577959641
 30
0.0
 40
3.0000000121533241
100
AcDbArc
 50
180.0
 51
269.99999976788592
  0
LINE
  5
B5
100
AcDbEntity
100
AcDbLine
  8
layer 2
 62
256
370
-1
 48
1.0
  6
ByLayer
 10
-923.39999999678002
 20
-204.89179579174979
 30
0.0
 11
-923.39999999678014
 21
-189.49179579174981
 31
0.0
  0
ARC
  5
B6
100
AcDbEntity
  8
layer 2
 62
256
370
-1
 48
1.0
  6
ByLayer
100
AcDbCircle
 10
-920.39999998462667
 20
-189.4917958039033
 30
0.0
 40
3.0000000121534089
100
AcDbArc
 50
90.000000232111887
 51
180.0
  0
LINE
  5
B7
100
AcDbEntity
100
AcDbLine
  8
layer 2
 62
256
370
-1
 48
1.0
  6
ByLayer
 10
-920.39999999678002
 20
-186.49179579174989
 30
0.0
 11
-904.99999999678016
 21
-186.49179579174989
 31
0.0
  0
LINE
  5
B8
100
AcDbEntity
100
AcDbLine
  8
layer 2
 62
256
370
-1
 48
1.0
  6
ByLayer
 10
-904.99999999678016
 20
-186.49179579174989
 30
0.0
 11
-904.99999999678016
 21
-186.49179579174989
 31
0.0
  0
ARC
  5
B9
100
AcDbEntity
  8
layer 2
 62
256
370
-1
 48
1.0
  6
ByLayer
100
AcDbCircle
 10
-879.60000001537355
 20
-189.4917958039033
 30
0.0
 40
3.0000000121533801
100
AcDbArc
 50
0.0
 51
89.999999767888113
  0
LINE
  5
BA
100
AcDbEntity
100
AcDbLine
  8
layer 2
 62
256
370
-1
 48
1.0
  6
ByLayer
 10
-876.6000000032202
 20
-189.49179579174989
 30
0.0
 11
-876.6000000032202
 21
-204.89179579174979
 31
0.0
  0
ARC
  5
BB
100
AcDbEntity
  8
layer 2
 62
256
370
-1
 48
1.0
  6
ByLayer
100
AcDbCircle
 10
-879.60000001537367
 20
-204.89179577959649
 30
0.0
 40
3.0000000121534942
100
AcDbArc
 50
270.00000023211408
 51
0.0
  0
LINE
  5
BC
100
AcDbEntity
100
AcDbLine
  8
layer 2
 62
256
370
-1
 48
1.0
  6
ByLayer
 10
-879.6000000032202
 20
-207.89179579175001
 30
0.0
 11
-895.00000000322018
 21
-207.89179579174979
 31
0.0
  0
ARC
  5
BD
100
AcDbEntity
  8
layer 2
 62
256
370
-1
 48
1.0
  6
ByLayer
100
AcDbCircle
 10
-894.99999999106672
 20
-204.89179577959641
 30
0.0
 40
3.0000000121533241
100
AcDbArc
 50
180.0
 51
269.99999976788592
  0
LINE
  5
BE
100
AcDbEntity
100
AcDbLine
  8
layer 2
 62
256
370
-1
 48
1.0
  6
ByLayer
 10
-898.00000000322007
 20
-204.89179579174979
 30
0.0
 11
-898.00000000322018
 21
-189.49179579174981
 31
0.0
  0
ARC
  5
BF
100
AcDbEntity
  8
layer 2
 62
256
370
-1
 48
1.0
  6
ByLayer
100
AcDbCircle
 10
-894.99999999106672
 20
-189.4917958039033
 30
0.0
 40
3.0000000121534089
100
AcDbArc
 50
90.000000232111887
 51
180.0
  0
LINE
  5
C0
100
AcDbEntity
100
AcDbLine
  8
layer 2
 62
256
370
-1
 48
1.0
  6
ByLayer
 10
-895.00000000322007
 20
-186.49179579174989
 30
0.0
 11
-879.6000000032202
 21
-186.49179579174989
 31
0.0
  0
LINE
  5
C1
100
AcDbEntity
100
AcDbLine
  8
layer 2
 62
256
370
-1
 48
1.0
  6
ByLayer
 10
-879.6000000032202
 20
-186.49179579174989
 30
0.0
 11
-879.6000000032202
 21
-186.49179579174989
 31
0.0
  0
ARC
  5
C2
100
AcDbEntity
  8
layer 2
 62
256
370
-1
 48
1.0
  6
ByLayer
100
AcDbCircle
 10
-854.20000002181359
 20
-189.4917958039033
 30
0.0
 40
3.0000000121533801
100
AcDbArc
 50
0.0
 51
89.999999767888113
  0
LINE
  5
C3
100
AcDbEntity
100
AcDbLine
  8
layer 2
 62
256
370
-1
 48
1.0
  6
ByLayer
 10
-851.20000000966024
 20
-189.49179579174989
 30
0.0
 11
-851.20000000966024
 21
-204.89179579174979
 31
0.0
  0
ARC
  5
C4
100
AcDbEntity
  8
layer 2
 62
256
370
-1
 48
1.0
  6
ByLayer
100
AcDbCircle
 10
-854.20000002181371
 20
-204.89179577959649
 30
0.0
 40
3.0000000121534942
100
AcDbArc
 50
270.00000023211408
 51
0.0
  0
LINE
  5
C5
100
AcDbEntity
100
AcDbLine
  8
layer 2
 62
256
370
-1
 48
1.0
  6
ByLayer
 10
-854.20000000966024
 20
-207.89179579175001
 30
0.0
 11
-869.60000000966022
 21
-207.89179579174979
 31
0.0
  0
ARC
  5
C6
100
AcDbEntity
  8
layer 2
 62
256
370
-1
 48
1.0
  6
ByLayer
100
AcDbCircle
 10
-869.59999999750676
 20
-204.89179577959641
 30
0.0
 40
3.0000000121533241
100
AcDbArc
 50
180.0
 51
269.99999976788592
  0
LINE
  5
C7
100
AcDbEntity
100
AcDbLine
  8
layer 2
 62
256
370
-1
 48
1.0
  6
ByLayer
 10
-872.60000000966011
 20
-204.89179579174979
 30
0.0
 11
-872.60000000966022
 21
-189.49179579174981
 31
0.0
  0
ARC
  5
C8
100
AcDbEntity
  8
layer 2
 62
256
370
-1
 48
1.0
  6
ByLayer
100
AcDbCircle
 10
-869.59999999750676
 20
-189.4917958039033
 30
0.0
 40
3.0000000121533938
100
AcDbArc
 50
90.000000232111887
 51
180.0
  0
LINE
  5
C9
100
AcDbEntity
100
AcDbLine
  8
layer 2
 62
256
370
-1
 48
1.0
  6
ByLayer
 10
-869.60000000966011
 20
-186.49179579174989
 30
0.0
 11
-854.20000000966024
 21
-186.49179579174989
 31
0.0
  0
LINE
  5
CA
100
AcDbEntity
100
AcDbLine
  8
layer 2
 62
256
370
-1
 48
1.0
  6
ByLayer
 10
-854.20000000966024
 20
-186.49179579174989
 30
0.0
 11
-854.20000000966024
 21
-186.49179579174989
 31
0.0
  0
ARC
  5
CB
100
AcDbEntity
  8
layer 2
 62
256
370
-1
 48
1.0
  6
ByLayer
100
AcDbCircle
 10
-930.40000000249347
 20
-164.09179580146321
 30
0.0
 40
3.0000000121533801
100
AcDbArc
 50
0.0
 51
89.999999767888113
  0
LINE
  5
CC
100
AcDbEntity
100
AcDbLine
  8
layer 2
 62
256
370
-1
 48
1.0
  6
ByLayer
 10
-927.39999999034012
 20
-164.09179578930991
 30
0.0
 11
-927.39999999034012
 21
-179.49179578930969
 31
0.0
  0
ARC
  5
CD
100
AcDbEntity
  8
layer 2
 62
256
370
-1
 48
1.0
  6
ByLayer
100
AcDbCircle
 10
-930.40000000249358
 20
-179.49179577715651
 30
0.0
 40
3.0000000121534942
100
AcDbArc
 50
270.00000023211408
 51
0.0
  0
LINE
  5
CE
100
AcDbEntity
100
AcDbLine
  8
layer 2
 62
256
370
-1
 48
1.0
  6
ByLayer
 10
-930.39999999034012
 20
-182.49179578930989
 30
0.0
 11
-945.7999999903401
 21
-182.49179578930969
 31
0.0
  0
ARC
  5
CF
100
AcDbEntity
  8
layer 2
 62
256
370
-1
 48
1.0
  6
ByLayer
100
AcDbCircle
 10
-945.79999997818652
 20
-179.4917957771564
 30
0.0
 40
3.0000000121533521
100
AcDbArc
 50
180.0
 51
269.99999976788371
  0
LINE
  5
D0
100
AcDbEntity
100
AcDbLine
  8
layer 2
 62
256
370
-1
 48
1.0
  6
ByLayer
 10
-948.79999999033998
 20
-179.49179578930969
 30
0.0
 11
-948.7999999903401
 21
-164.0917957893098
 31
0.0
  0
ARC
  5
D1
100
AcDbEntity
  8
layer 2
 62
256
370
-1
 48
1.0
  6
ByLayer
100
AcDbCircle
 10
-945.79999997818663
 20
-164.09179580146321
 30
0.0
 40
3.0000000121533938
100
AcDbArc
 50
90.000000232111887
 51
180.0
  0
LINE
  5
D2
100
AcDbEntity
100
AcDbLine
  8
layer 2
 62
256
370
-1
 48
1.0
  6
ByLayer
 10
-945.79999999033998
 20
-161.09179578930991
 30
0.0
 11
-930.39999999034012
 21
-161.09179578930991
 31
0.0
  0
LINE
  5
D3
100
AcDbEntity
100
AcDbLine
  8
layer 2
 62
256
370
-1
 48
1.0
  6
ByLayer
 10
-930.39999999034012
 20
-161.09179578930991
 30
0.0
 11
-930.39999999034012
 21
-161.09179578930991
 31
0.0
  0
ARC
  5
D4
100
AcDbEntity
  8
layer 2
 62
256
370
-1
 48
1.0
  6
ByLayer
100
AcDbCircle
 10
-905.00000000893351
 20
-164.09179580146321
 30
0.0
 40
3.0000000121533801
100
AcDbArc
 50
0.0
 51
89.999999767888113
  0
LINE
  5
D5
100
AcDbEntity
100
AcDbLine
  8
layer 2
 62
256
370
-1
 48
1.0
  6
ByLayer
 10
-901.99999999678016
 20
-164.09179578930991
 30
0.0
 11
-901.99999999678016
 21
-179.49179578930969
 31
0.0
  0
ARC
  5
D6
100
AcDbEntity
  8
layer 2
 62
256
370
-1
 48
1.0
  6
ByLayer
100
AcDbCircle
 10
-905.00000000893363
 20
-179.49179577715651
 30
0.0
 40
3.0000000121534942
100
AcDbArc
 50
270.00000023211408
 51
0.0
  0
LINE
  5
D7
100
AcDbEntity
100
AcDbLine
  8
layer 2
 62
256
370
-1
 48
1.0
  6
ByLayer
 10
-904.99999999678016
 20
-182.49179578930989
 30
0.0
 11
-920.39999999678014
 21
-182.49179578930969
 31
0.0
  0
ARC
  5
D8
100
AcDbEntity
  8
layer 2
 62
256
370
-1
 48
1.0
  6
ByLayer
100
AcDbCircle
 10
-920.39999998462667
 20
-179.4917957771564
 30
0.0
 40
3.0000000121533241
100
AcDbArc
 50
180.0
 51
269.99999976788592
  0
LINE
  5
D9
100
AcDbEntity
100
AcDbLine
  8
layer 2
 62
256
370
-1
 48
1.0
  6
ByLayer
 10
-923.39999999678002
 20
-179.49179578930969
 30
0.0
 11
-923.39999999678014
 21
-164.0917957893098
 31
0.0
  0
ARC
  5
DA
100
AcDbEntity
  8
layer 2
 62
256
370
-1
 48
1.0
  6
ByLayer
100
AcDbCircle
 10
-920.39999998462667
 20
-164.09179580146329
 30
0.0
 40
3.0000000121534089
100
AcDbArc
 50
90.000000232111887
 51
180.0
  0
LINE
  5
DB
100
AcDbEntity
100
AcDbLine
  8
layer 2
 62
256
370
-1
 48
1.0
  6
ByLayer
 10
-920.39999999678002
 20
-161.09179578930991
 30
0.0
 11
-904.99999999678016
 21
-161.09179578930991
 31
0.0
  0
LINE
  5
DC
100
AcDbEntity
100
AcDbLine
  8
layer 2
 62
256
370
-1
 48
1.0
  6
ByLayer
 10
-904.99999999678016
 20
-161.09179578930991
 30
0.0
 11
-904.99999999678016
 21
-161.09179578930991
 31
0.0
  0
ARC
  5
DD
100
AcDbEntity
  8
layer 2
 62
256
370
-1
 48
1.0
  6
ByLayer
100
AcDbCircle
 10
-879.60000001537355
 20
-164.09179580146321
 30
0.0
 40
3.0000000121533801
100
AcDbArc
 50
0.0
 51
89.999999767888113
  0
LINE
  5
DE
100
AcDbEntity
100
AcDbLine
  8
layer 2
 62
256
370
-1
 48
1.0
  6
ByLayer
 10
-876.6000000032202
 20
-164.09179578930991
 30
0.0
 11
-876.6000000032202
 21
-179.49179578930969
 31
0.0
  0
ARC
  5
DF
100
AcDbEntity
  8
layer 2
 62
256
370
-1
 48
1.0
  6
ByLayer
100
AcDbCircle
 10
-879.60000001537367
 20
-179.49179577715651
 30
0.0
 40
3.0000000121534942
100
AcDbArc
 50
270.00000023211408
 51
0.0
  0
LINE
  5
E0
100
AcDbEntity
100
AcDbLine
  8
layer 2
 62
256
370
-1
 48
1.0
  6
ByLayer
 10
-879.6000000032202
 20
-182.49179578930989
 30
0.0
 11
-895.00000000322018
 21
-182.49179578930969
 31
0.0
  0
ARC
  5
E1
100
AcDbEntity
  8
layer 2
 62
256
370
-1
 48
1.0
  6
ByLayer
100
AcDbCircle
 10
-894.99999999106672
 20
-179.4917957771564
 30
0.0
 40
3.0000000121533241
100
AcDbArc
 50
180.0
 51
269.99999976788592
  0
LINE
  5
E2
100
AcDbEntity
100
AcDbLine
  8
layer 2
 62
256
370
-1
 48
1.0
  6
ByLayer
 10
-898.00000000322007
 20
-179.49179578930969
 30
0.0
 11
-898.00000000322018
 21
-164.0917957893098
 31
0.0
  0
ARC
  5
E3
100
AcDbEntity
  8
layer 2
 62
256
370
-1
 48
1.0
  6
ByLayer
100
AcDbCircle
 10
-894.99999999106672
 20
-164.09179580146329
 30
0.0
 40
3.0000000121534089
100
AcDbArc
 50
90.000000232111887
 51
180.0
  0
LINE
  5
E4
100
AcDbEntity
100
AcDbLine
  8
layer 2
 62
256
370
-1
 48
1.0
  6
ByLayer
 10
-895.00000000322007
 20
-161.09179578930991
 30
0.0
 11
-879.6000000032202
 21
-161.09179578930991
 31
0.0
  0
LINE
  5
E5
100
AcDbEntity
100
AcDbLine
  8
layer 2
 62
256
370
-1
 48
1.0
  6
ByLayer
 10
-879.6000000032202
 20
-161.09179578930991
 30
0.0
 11
-879.6000000032202
 21
-161.09179578930991
 31
0.0
  0
ARC
  5
E6
100
AcDbEntity
  8
layer 2
 62
256
370
-1
 48
1.0
  6
ByLayer
100
AcDbCircle
 10
-854.20000002181359
 20
-164.09179580146321
 30
0.0
 40
3.0000000121533801
100
AcDbArc
 50
0.0
 51
89.999999767888113
  0
LINE
  5
E7
100
AcDbEntity
100
AcDbLine
  8
layer 2
 62
256
370
-1
 48
1.0
  6
ByLayer
 10
-851.20000000966024
 20
-164.09179578930991
 30
0.0
 11
-851.20000000966024
 21
-179.49179578930969
 31
0.0
  0
ARC
  5
E8
100
AcDbEntity
  8
layer 2
 62
256
370
-1
 48
1.0
  6
ByLayer
100
AcDbCircle
 10
-854.20000002181371
 20
-179.49179577715651
 30
0.0
 40
3.0000000121534942
100
AcDbArc
 50
270.00000023211408
 51
0.0
  0
LINE
  5
E9
100
AcDbEntity
100
AcDbLine
  8
layer 2
 62
256
370
-1
 48
1.0
  6
ByLayer
 10
-854.20000000966024
 20
-182.49179578930989
 30
0.0
 11
-869.60000000966022
 21
-182.49179578930969
 31
0.0
  0
ARC
  5
EA
100
AcDbEntity
  8
layer 2
 62
256
370
-1
 48
1.0
  6
ByLayer
100
AcDbCircle
 10
-869.59999999750676
 20
-179.4917957771564
 30
0.0
 40
3.0000000121533241
100
AcDbArc
 50
180.0
 51
269.99999976788592
  0
LINE
  5
EB
100
AcDbEntity
100
AcDbLine
  8
layer 2
 62
256
370
-1
 48
1.0
  6
ByLayer
 10
-872.60000000966011
 20
-179.49179578930969
 30
0.0
 11
-872.60000000966022
 21
-164.0917957893098
 31
0.0
  0
ARC
  5
EC
100
AcDbEntity
  8
layer 2
 62
256
370
-1
 48
1.0
  6
ByLayer
100
AcDbCircle
 10
-869.59999999750676
 20
-164.09179580146329
 30
0.0
 40
3.0000000121534089
100
AcDbArc
 50
90.000000232111887
 51
180.0
  0
LINE
  5
ED
100
AcDbEntity
100
AcDbLine
  8
layer 2
 62
256
370
-1
 48
1.0
  6
ByLayer
 10
-869.60000000966011
 20
-161.09179578930991
 30
0.0
 11
-854.20000000966024
 21
-161.09179578930991
 31
0.0
  0
LINE
  5
EE
100
AcDbEntity
100
AcDbLine
  8
layer 2
 62
256
370
-1
 48
1.0
  6
ByLayer
 10
-854.20000000966024
 20
-161.09179578930991
 30
0.0
 11
-854.20000000966024
 21
-161.09179578930991
 31
0.0
  0
CIRCLE
  5
EF
100
AcDbEntity
100
AcDbCircle
  8
layer 2
 62
256
370
-1
 48
1.0
  6
ByLayer
 10
-907.50000000000261
 20
-385.8751664135184
 30
0.0
 40
3.0
  0
CIRCLE
  5
F0
100
AcDbEntity
100
AcDbCircle
  8
layer 2
 62
256
370
-1
 48
1.0
  6
ByLayer
 10
-892.50000000000261
 20
-385.8751664135184
 30
0.0
 40
3.0
  0
CIRCLE
  5
F1
100
AcDbEntity
100
AcDbCircle
  8
layer 2
 62
256
370
-1
 48
1.0
  6
ByLayer
 10
-885.00000000000261
 20
-398.86554747028492
 30
0.0
 40
3.0
  0
CIRCLE
  5
F2
100
AcDbEntity
100
AcDbCircle
  8
layer 2
 62
256
370
-1
 48
1.0
  6
ByLayer
 10
-892.50000000000261
 20
-411.85592852705156
 30
0.0
 40
3.0
  0
CIRCLE
  5
F3
100
AcDbEntity
100
AcDbCircle
  8
layer 2
 62
256
370
-1
 48
1.0
  6
ByLayer
 10
-900.00000000000261
 20
-398.86554747028492
 30
0.0
 40
3.0
  0
CIRCLE
  5
F4
100
AcDbEntity
100
AcDbCircle
  8
layer 2
 62
256
370
-1
 48
1.0
  6
ByLayer
 10
-907.50000000000261
 20
-411.85592852705156
 30
0.0
 40
3.0
  0
CIRCLE
  5
F5
100
AcDbEntity
100
AcDbCircle
  8
layer 2
 62
256
370
-1
 48
1.0
  6
ByLayer
 10
-915.00000000000261
 20
-398.86554747028492
 30
0.0
 40
3.0
  0
CIRCLE
  5
F6
100
AcDbEntity
100
AcDbCircle
  8
layer 2
 62
256
370
-1
 48
1.0
  6
ByLayer
 10
-980.0000000000025
 20
-323.86554747028492
 30
0.0
 40
5.0
  0
CIRCLE
  5
F7
100
AcDbEntity
100
AcDbCircle
  8
layer 2
 62
256
370
-1
 48
1.0
  6
ByLayer
 10
-820.0000000000025
 20
-323.86554747028492
 30
0.0
 40
5.0
  0
CIRCLE
  5
F8
100
AcDbEntity
100
AcDbCircle
  8
layer 2
 62
256
370
-1
 48
1.0
  6
ByLayer
 10
-900.0000000000025
 20
-363.86554747028708
 30
0.0
 40
3.0
  0
CIRCLE
  5
F9
100
AcDbEntity
100
AcDbCircle
  8
layer 2
 62
256
370
-1
 48
1.0
  6
ByLayer
 10
-887.66771690246537
 20
-363.00319023037275
 30
0.0
 40
3.0
  0
CIRCLE
  5
FA
100
AcDbEntity
100
AcDbCircle
  8
layer 2
 62
256
370
-1
 48
1.0
  6
ByLayer
 10
-875.57546766676944
 20
-360.43290331326318
 30
0.0
 40
3.0
  0
CIRCLE
  5
FB
100
AcDbEntity
100
AcDbCircle
  8
layer 2
 62
256
370
-1
 48
1.0
  6
ByLayer
 10
-863.95861416873834
 20
-356.20471442977686
 30
0.0
 40
3.0
  0
CIRCLE
  5
FC
100
AcDbEntity
100
AcDbCircle
  8
layer 2
 62
256
370
-1
 48
1.0
  6
ByLayer
 10
-912.33228309753963
 20
-363.00319023037287
 30
0.0
 40
3.0
  0
CIRCLE
  5
FD
100
AcDbEntity
100
AcDbCircle
  8
layer 2
 62
256
370
-1
 48
1.0
  6
ByLayer
 10
-924.42453233323556
 20
-360.43290331326318
 30
0.0
 40
3.0
  0
CIRCLE
  5
FE
100
AcDbEntity
100
AcDbCircle
  8
layer 2
 62
256
370
-1
 48
1.0
  6
ByLayer
 10
-936.04138583126667
 20
-356.20471442977691
 30
0.0
 40
3.0
  0
LWPOLYLINE
  5
FF
  8
layer 2
 62
256
370
-1
 48
1.0
  6
ByLayer
100
AcDbEntity
100
AcDbPolyline
 90
5
 70
128
 10
-795.0000000000025
 20
-323.86554747028515
 30
0.0
 42
0.7584603988597894
 10
-841.36498516320819
 20
-310.88335162458918
 30
0.0
 42
-0.5625000000000199
 10
-958.63501483679738
 20
-310.88335162458856
 30
0.0
 42
0.7584603988597912
 10
-1004.9999999999975
 20
-323.86554747028464
 30
0.0
 42
0.9263705243755457
 10
-795.0000000000025
 20
-323.86554747028481
 30
0.0
  0
CIRCLE
  5
100
100
AcDbEntity
100
AcDbCircle
  8
layer 2
 62
256
370
-1
 48
1.0
  6
ByLayer
 10
-690.0
 20
-200.0
 30
0.0
 40
18.5
  0
CIRCLE
  5
101
100
AcDbEntity
100
AcDbCircle
  8
layer 2
 62
256
370
-1
 48
1.0
  6
ByLayer
 10
-645.0
 20
-277.94228634059948
 30
0.0
 40
18.5
  0
CIRCLE
  5
102
100
AcDbEntity
100
AcDbCircle
  8
layer 2
 62
256
370
-1
 48
1.0
  6
ByLayer
 10
-555.0
 20
-277.94228634059948
 30
0.0
 40
18.5
  0
CIRCLE
  5
103
100
AcDbEntity
100
AcDbCircle
  8
layer 2
 62
256
370
-1
 48
1.0
  6
ByLayer
 10
-510.0
 20
-200.0
 30
0.0
 40
18.5
  0
CIRCLE
  5
104
100
AcDbEntity
100
AcDbCircle
  8
layer 2
 62
256
370
-1
 48
1.0
  6
ByLayer
 10
-555.0
 20
-122.05771365940052
 30
0.0
 40
18.5
  0
CIRCLE
  5
105
100
AcDbEntity
100
AcDbCircle
  8
layer 2
 62
256
370
-1
 48
1.0
  6
ByLayer
 10
-600.0
 20
-200.0
 30
0.0
 40
18.5
  0
CIRCLE
  5
106
100
AcDbEntity
100
AcDbCircle
  8
layer 2
 62
256
370
-1
 48
1.0
  6
ByLayer
 10
-645.0
 20
-122.05771365940052
 30
0.0
 40
18.5
  0
CIRCLE
  5
107
100
AcDbEntity
100
AcDbCircle
  8
layer 2
 62
256
370
-1
 48
1.0
  6
ByLayer
 10
-600.0
 20
-200.0
 30
0.0
 40
160.0
  0
CIRCLE
  5
108
100
AcDbEntity
100
AcDbCircle
  8
layer 2
 62
256
370
-1
 48
1.0
  6
ByLayer
 10
-700.0176038879049
 20
-231.76442841485016
 30
0.0
 40
2.0499999999999998
  0
CIRCLE
  5
109
100
AcDbEntity
100
AcDbCircle
  8
layer 2
 62
256
370
-1
 48
1.0
  6
ByLayer
 10
-677.5176038879049
 20
-270.73557158514996
 30
0.0
 40
2.0499999999999998
  0
CIRCLE
  5
10A
100
AcDbEntity
100
AcDbCircle
  8
layer 2
 62
256
370
-1
 48
1.0
  6
ByLayer
 10
-716.48874705820469
 20
-293.23557158514996
 30
0.0
 40
2.0499999999999998
  0
CIRCLE
  5
10B
100
AcDbEntity
100
AcDbCircle
  8
layer 2
 62
256
370
-1
 48
1.0
  6
ByLayer
 10
-738.98874705820469
 20
-254.26442841485016
 30
0.0
 40
2.0499999999999998
  0
CIRCLE
  5
10C
100
AcDbEntity
100
AcDbCircle
  8
layer 2
 62
256
370
-1
 48
1.0
  6
ByLayer
 10
-708.25317547305474
 20
-262.5
 30
0.0
 40
5.0
  0
CIRCLE
  5
10D
100
AcDbEntity
100
AcDbCircle
  8
layer 2
 62
256
370
-1
 48
1.0
  6
ByLayer
 10
-522.4823961120951
 20
-270.73557158514996
 30
0.0
 40
2.0499999999999998
  0
CIRCLE
  5
10E
100
AcDbEntity
100
AcDbCircle
  8
layer 2
 62
256
370
-1
 48
1.0
  6
ByLayer
 10
-499.98239611209499
 20
-231.76442841485027
 30
0.0
 40
2.0499999999999998
  0
CIRCLE
  5
10F
100
AcDbEntity
100
AcDbCircle
  8
layer 2
 62
256
370
-1
 48
1.0
  6
ByLayer
 10
-461.01125294179542
 20
-254.26442841485016
 30
0.0
 40
2.0499999999999998
  0
CIRCLE
  5
110
100
AcDbEntity
100
AcDbCircle
  8
layer 2
 62
256
370
-1
 48
1.0
  6
ByLayer
 10
-483.51125294179531
 20
-293.23557158514984
 30
0.0
 40
2.0499999999999998
  0
CIRCLE
  5
111
100
AcDbEntity
100
AcDbCircle
  8
layer 2
 62
256
370
-1
 48
1.0
  6
ByLayer
 10
-491.7468245269452
 20
-262.50000000000011
 30
0.0
 40
5.0
  0
CIRCLE
  5
112
100
AcDbEntity
100
AcDbCircle
  8
layer 2
 62
256
370
-1
 48
1.0
  6
ByLayer
 10
-577.5
 20
-97.5
 30
0.0
 40
2.0499999999999998
  0
CIRCLE
  5
113
100
AcDbEntity
100
AcDbCircle
  8
layer 2
 62
256
370
-1
 48
1.0
  6
ByLayer
 10
-622.50000000000011
 20
-97.5
 30
0.0
 40
2.0499999999999998
  0
CIRCLE
  5
114
100
AcDbEntity
100
AcDbCircle
  8
layer 2
 62
256
370
-1
 48
1.0
  6
ByLayer
 10
-622.5
 20
-52.5
 30
0.0
 40
2.0499999999999998
  0
CIRCLE
  5
115
100
AcDbEntity
100
AcDbCircle
  8
layer 2
 62
256
370
-1
 48
1.0
  6
ByLayer
 10
-577.5
 20
-52.5
 30
0.0
 40
2.0499999999999998
  0
CIRCLE
  5
116
100
AcDbEntity
100
AcDbCircle
  8
layer 2
 62
256
370
-1
 48
1.0
  6
ByLayer
 10
-600.0
 20
-75.0
 30
0.0
 40
5.0
  0
CIRCLE
  5
117
100
AcDbEntity
100
AcDbCircle
  8
layer 2
 62
256
370
-1
 48
1.0
  6
ByLayer
 10
-463.16779073242458
 20
-128.50544064501923
 30
0.0
 40
1.5999999999999941
  0
CIRCLE
  5
118
100
AcDbEntity
100
AcDbCircle
  8
layer 2
 62
256
370
-1
 48
1.0
  6
ByLayer
 10
-469.66779073242458
 20
-117.24711039582155
 30
0.0
 40
1.5999999999999941
  0
CIRCLE
  5
119
100
AcDbEntity
100
AcDbCircle
  8
layer 2
 62
256
370
-1
 48
1.0
  6
ByLayer
 10
-517.24711039582166
 20
-69.667790732424578
 30
0.0
 40
1.5999999999999941
  0
CIRCLE
  5
11A
100
AcDbEntity
100
AcDbCircle
  8
layer 2
 62
256
370
-1
 48
1.0
  6
ByLayer
 10
-528.50544064501923
 20
-63.167790732424578
 30
0.0
 40
1.5999999999999941
  0
CIRCLE
  5
11B
100
AcDbEntity
100
AcDbCircle
  8
layer 2
 62
256
370
-1
 48
1.0
  6
ByLayer
 10
-445.75255104084079
 20
-206.5
 30
0.0
 40
1.5999999999999941
  0
CIRCLE
  5
11C
100
AcDbEntity
100
AcDbCircle
  8
layer 2
 62
256
370
-1
 48
1.0
  6
ByLayer
 10
-445.75255104084079
 20
-193.5
 30
0.0
 40
1.5999999999999941
  0
CIRCLE
  5
11D
100
AcDbEntity
100
AcDbCircle
  8
layer 2
 62
256
370
-1
 48
1.0
  6
ByLayer
 10
-704.47322306203466
 20
-86.334388782539975
 30
0.0
 40
1.5999999999999941
  0
CIRCLE
  5
11E
100
AcDbEntity
100
AcDbCircle
  8
layer 2
 62
256
370
-1
 48
1.0
  6
ByLayer
 10
-747.3092707956904
 20
-153.79930468001169
 30
0.0
 40
1.5999999999999941
  0
CIRCLE
  5
11F
100
AcDbEntity
100
AcDbCircle
  8
layer 2
 62
256
370
-1
 48
1.0
  6
ByLayer
 10
-713.66561121745997
 20
-95.52677693796528
 30
0.0
 40
1.5999999999999941
  0
CIRCLE
  5
120
100
AcDbEntity
100
AcDbCircle
  8
layer 2
 62
256
370
-1
 48
1.0
  6
ByLayer
 10
-750.67391838202309
 20
-166.35634042176957
 30
0.0
 40
1.5999999999999941
  0
CIRCLE
  5
121
100
AcDbEntity
100
AcDbCircle
  8
layer 2
 62
256
370
-1
 48
1.0
  6
ByLayer
 10
-646.20069531998831
 20
-347.3092707956904
 30
0.0
 40
1.5999999999999941
  0
CIRCLE
  5
122
100
AcDbEntity
100
AcDbCircle
  8
layer 2
 62
256
370
-1
 48
1.0
  6
ByLayer
 10
-566.35634042176957
 20
-350.67391838202309
 30
0.0
 40
1.5999999999999941
  0
CIRCLE
  5
123
100
AcDbEntity
100
AcDbCircle
  8
layer 2
 62
256
370
-1
 48
1.0
  6
ByLayer
 10
-633.64365957823054
 20
-350.67391838202309
 30
0.0
 40
1.5999999999999941
  0
CIRCLE
  5
124
100
AcDbEntity
100
AcDbCircle
  8
layer 2
 62
256
370
-1
 48
1.0
  6
ByLayer
 10
-553.79930468001191
 20
-347.30927079569051
 30
0.0
 40
1.5999999999999941
  0
CIRCLE
  5
125
100
AcDbEntity
100
AcDbCircle
  8
layer 2
 62
256
370
-1
 48
1.0
  6
ByLayer
 10
-556.6987298107781
 20
-175.0
 30
0.0
 40
5.0
  0
CIRCLE
  5
126
100
AcDbEntity
100
AcDbCircle
  8
layer 2
 62
256
370
-1
 48
1.0
  6
ByLayer
 10
-592.54788669119125
 20
-150.5584586887436
 30
0.0
 40
5.0
  0
CIRCLE
  5
127
100
AcDbEntity
100
AcDbCircle
  8
layer 2
 62
256
370
-1
 48
1.0
  6
ByLayer
 10
-634.00863688854599
 20
-163.34740640850873
 30
0.0
 40
5.0
  0
CIRCLE
  5
128
100
AcDbEntity
100
AcDbCircle
  8
layer 2
 62
256
370
-1
 48
1.0
  6
ByLayer
 10
-649.86018985905901
 20
-203.73650467932111
 30
0.0
 40
5.0
  0
CIRCLE
  5
129
100
AcDbEntity
100
AcDbCircle
  8
layer 2
 62
256
370
-1
 48
1.0
  6
ByLayer
 10
-628.16600290318104
 20
-241.31193871579967
 30
0.0
 40
5.0
  0
CIRCLE
  5
12A
100
AcDbEntity
100
AcDbCircle
  8
layer 2
 62
256
370
-1
 48
1.0
  6
ByLayer
 10
-585.26224127945477
 20
-247.77864028930696
 30
0.0
 40
5.0
  0
CIRCLE
  5
12B
100
AcDbEntity
100
AcDbCircle
  8
layer 2
 62
256
370
-1
 48
1.0
  6
ByLayer
 10
-553.45631256778972
 20
-218.26705121831981
 30
0.0
 40
5.0
  0
CIRCLE
  5
12C
100
AcDbEntity
100
AcDbCircle
  8
layer 2
 62
256
370
-1
 48
1.0
  6
ByLayer
 10
-519.99999999999977
 20
-300.0
 30
0.0
 40
5.0
  0
CIRCLE
  5
12D
100
AcDbEntity
100
AcDbCircle
  8
layer 2
 62
256
370
-1
 48
1.0
  6
ByLayer
 10
-679.99999999999989
 20
-300.0
 30
0.0
 40
5.0
  0
ENDSEC
  0
SECTION
  2
OBJECTS
  0
DICTIONARY
  5
C
100
AcDbDictionary
280
0
281
1
  3
ACAD_GROUP
350
D
  3
ACAD_LAYOUT
350
1A
  3
ACAD_MLINESTYLE
350
17
  3
ACAD_PLOTSETTINGS
350
19
  3
ACAD_PLOTSTYLENAME
350
E
  3
AcDbVariableDictionary
350
12E
  3
QCAD_OBJECTS
350
12F
  0
DICTIONARY
  5
D
100
AcDbDictionary
280
0
281
1
  0
ACDBDICTIONARYWDFLT
  5
E
100
AcDbDictionary
281
1
  3
Normal
350
F
100
AcDbDictionaryWithDefault
340
F
  0
ACDBPLACEHOLDER
  5
F
  0
DICTIONARY
  5
17
100
AcDbDictionary
280
0
281
1
  3
Standard
350
18
  0
MLINESTYLE
  5
18
100
AcDbMlineStyle
  2
STANDARD
 70
0
  3

 62
256
 51
90.0
 52
90.0
 71
2
 49
0.5
 62
256
  6
BYLAYER
 49
-0.5
 62
256
  6
BYLAYER
  0
DICTIONARY
  5
19
100
AcDbDictionary
280
0
281
1
  0
DICTIONARY
  5
1A
100
AcDbDictionary
281
1
  3
Layout1
350
1E
  3
Layout2
350
26
  3
Model
350
22
  0
LAYOUT
  5
1E
100
AcDbPlotSettings
  1

  2
none_device
  4

  6

 40
0.0
 41
0.0
 42
0.0
 43
0.0
 44
0.0
 45
0.0
 46
0.0
 47
0.0
 48
0.0
 49
0.0
140
0.0
141
0.0
142
1.0
143
1.0
 70
688
 72
0
 73
0
 74
5
  7

 75
16
147
1.0
148
0.0
149
0.0
100
AcDbLayout
  1
Layout1
 70
1
 71
1
 10
0.0
 20
0.0
 11
420.0
 21
297.0
 12
0.0
 22
0.0
 32
0.0
 14
100000000000000000000.0
 24
100000000000000000000.0
 34
100000000000000000000.0
 15
-100000000000000000000.0
 25
-100000000000000000000.0
 35
-100000000000000000000.0
146
0.0
 13
0.0
 23
0.0
 33
0.0
 16
1.0
 26
0.0
 36
0.0
 17
0.0
 27
1.0
 37
0.0
 76
0
330
1B
  0
LAYOUT
  5
22
100
AcDbPlotSettings
  1

  2
none_device
  4

  6

 40
0.0
 41
0.0
 42
0.0
 43
0.0
 44
0.0
 45
0.0
 46
0.0
 47
0.0
 48
0.0
 49
0.0
140
0.0
141
0.0
142
1.0
143
1.0
 70
1712
 72
0
 73
0
 74
0
  7

 75
0
147
1.0
148
0.0
149
0.0
100
AcDbLayout
  1
Model
 70
1
 71
0
 10
0.0
 20
0.0
 11
12.0
 21
9.0
 12
0.0
 22
0.0
 32
0.0
 14
0.0
 24
0.0
 34
0.0
 15
0.0
 25
0.0
 35
0.0
146
0.0
 13
0.0
 23
0.0
 33
0.0
 16
1.0
 26
0.0
 36
0.0
 17
0.0
 27
1.0
 37
0.0
 76
0
330
1F
  0
LAYOUT
  5
26
100
AcDbPlotSettings
  1

  2
none_device
  4

  6

 40
0.0
 41
0.0
 42
0.0
 43
0.0
 44
0.0
 45
0.0
 46
0.0
 47
0.0
 48
0.0
 49
0.0
140
0.0
141
0.0
142
1.0
143
1.0
 70
688
 72
0
 73
0
 74
5
  7

 75
16
147
1.0
148
0.0
149
0.0
100
AcDbLayout
  1
Layout2
 70
1
 71
2
 10
0.0
 20
0.0
 11
12.0
 21
9.0
 12
0.0
 22
0.0
 32
0.0
 14
0.0
 24
0.0
 34
0.0
 15
0.0
 25
0.0
 35
0.0
146
0.0
 13
0.0
 23
0.0
 33
0.0
 16
1.0
 26
0.0
 36
0.0
 17
0.0
 27
1.0
 37
0.0
 76
0
330
23
  0
DICTIONARY
  5
12E
100
AcDbDictionary
281
1
  3
DIMASSOC
350
131
  3
HIDETEXT
350
130
  0
DICTIONARYVAR
  5
130
100
DictionaryVariables
280
0
  1
2
  0
DICTIONARYVAR
  5
131
100
DictionaryVariables
280
0
  1
1
  0
DICTIONARY
  5
12F
100
AcDbDictionary
281
1
  3
Grid/DisplayGrid00
350
132
  3
Grid/DisplayGrid01
350
133
  3
Grid/DisplayGrid02
350
134
  3
Grid/DisplayGrid03
350
135
  3
Grid/GridSpacingX00
350
136
  3
Grid/GridSpacingX01
350
137
  3
Grid/GridSpacingX02
350
138
  3
Grid/GridSpacingX03
350
139
  3
Grid/GridSpacingY00
350
13A
  3
Grid/GridSpacingY01
350
13B
  3
Grid/GridSpacingY02
350
13C
  3
Grid/GridSpacingY03
350
13D
  3
Grid/IsometricGrid00
350
13E
  3
Grid/IsometricGrid01
350
13F
  3
Grid/IsometricGrid02
350
140
  3
Grid/IsometricGrid03
350
141
  3
Grid/IsometricProjection00
350
142
  3
Grid/IsometricProjection01
350
143
  3
Grid/IsometricProjection02
350
144
  3
Grid/IsometricProjection03
350
145
  3
Grid/MetaGridSpacingX00
350
146
  3
Grid/MetaGridSpacingX01
350
147
  3
Grid/MetaGridSpacingX02
350
148
  3
Grid/MetaGridSpacingX03
350
149
  3
Grid/MetaGridSpacingY00
350
14A
  3
Grid/MetaGridSpacingY01
350
14B
  3
Grid/MetaGridSpacingY02
350
14C
  3
Grid/MetaGridSpacingY03
350
14D
  3
MultiPageSettings/Columns
350
14E
  3
MultiPageSettings/GlueMarginsBottom
350
14F
  3
MultiPageSettings/GlueMarginsLeft
350
150
  3
MultiPageSettings/GlueMarginsRight
350
151
  3
MultiPageSettings/GlueMarginsTop
350
152
  3
MultiPageSettings/PrintCropMarks
350
153
  3
MultiPageSettings/Rows
350
154
  3
PageSettings/OffsetX
350
155
  3
PageSettings/OffsetY
350
156
  3
PageSettings/PageOrientation
350
157
  3
PageSettings/PaperHeight
350
158
  3
PageSettings/PaperSizeName
350
159
  3
PageSettings/PaperWidth
350
15A
  3
PageSettings/Scale
350
15B
  3
PageSettings/ShowPaperBorders
350
15C
  3
QCADVersion
350
15D
  3
UnitSettings/PaperUnit
350
15E
  0
XRECORD
  5
132
330
12F
100
AcDbXrecord
280
1
290
1
  0
XRECORD
  5
133
330
12F
100
AcDbXrecord
280
1
290
1
  0
XRECORD
  5
134
330
12F
100
AcDbXrecord
280
1
290
1
  0
XRECORD
  5
135
330
12F
100
AcDbXrecord
280
1
290
1
  0
XRECORD
  5
136
330
12F
100
AcDbXrecord
280
1
1000
auto
  0
XRECORD
  5
137
330
12F
100
AcDbXrecord
280
1
1000
auto
  0
XRECORD
  5
138
330
12F
100
AcDbXrecord
280
1
1000
auto
  0
XRECORD
  5
139
330
12F
100
AcDbXrecord
280
1
1000
auto
  0
XRECORD
  5
13A
330
12F
100
AcDbXrecord
280
1
1000
auto
  0
XRECORD
  5
13B
330
12F
100
AcDbXrecord
280
1
1000
auto
  0
XRECORD
  5
13C
330
12F
100
AcDbXrecord
280
1
1000
auto
  0
XRECORD
  5
13D
330
12F
100
AcDbXrecord
280
1
1000
auto
  0
XRECORD
  5
13E
330
12F
100
AcDbXrecord
280
1
290
0
  0
XRECORD
  5
13F
330
12F
100
AcDbXrecord
280
1
290
0
  0
XRECORD
  5
140
330
12F
100
AcDbXrecord
280
1
290
0
  0
XRECORD
  5
141
330
12F
100
AcDbXrecord
280
1
290
0
  0
XRECORD
  5
142
330
12F
100
AcDbXrecord
280
1
 90
0
  0
XRECORD
  5
143
330
12F
100
AcDbXrecord
280
1
 90
0
  0
XRECORD
  5
144
330
12F
100
AcDbXrecord
280
1
 90
0
  0
XRECORD
  5
145
330
12F
100
AcDbXrecord
280
1
 90
0
  0
XRECORD
  5
146
330
12F
100
AcDbXrecord
280
1
1000
auto
  0
XRECORD
  5
147
330
12F
100
AcDbXrecord
280
1
1000
auto
  0
XRECORD
  5
148
330
12F
100
AcDbXrecord
280
1
1000
auto
  0
XRECORD
  5
149
330
12F
100
AcDbXrecord
280
1
1000
auto
  0
XRECORD
  5
14A
330
12F
100
AcDbXrecord
280
1
1000
auto
  0
XRECORD
  5
14B
330
12F
100
AcDbXrecord
280
1
1000
auto
  0
XRECORD
  5
14C
330
12F
100
AcDbXrecord
280
1
1000
auto
  0
XRECORD
  5
14D
330
12F
100
AcDbXrecord
280
1
1000
auto
  0
XRECORD
  5
14E
330
12F
100
AcDbXrecord
280
1
 90
1
  0
XRECORD
  5
14F
330
12F
100
AcDbXrecord
280
1
 40
10.0
  0
XRECORD
  5
150
330
12F
100
AcDbXrecord
280
1
 40
10.0
  0
XRECORD
  5
151
330
12F
100
AcDbXrecord
280
1
 40
10.0
  0
XRECORD
  5
152
330
12F
100
AcDbXrecord
280
1
 40
10.0
  0
XRECORD
  5
153
330
12F
100
AcDbXrecord
280
1
290
0
  0
XRECORD
  5
154
330
12F
100
AcDbXrecord
280
1
 90
1
  0
XRECORD
  5
155
330
12F
100
AcDbXrecord
280
1
 40
-1143.791552093714
  0
XRECORD
  5
156
330
12F
100
AcDbXrecord
280
1
 40
-565.63798771887048
  0
XRECORD
  5
157
330
12F
100
AcDbXrecord
280
1
1000
Landscape
  0
XRECORD
  5
158
330
12F
100
AcDbXrecord
280
1
1000
1189
  0
XRECORD
  5
159
330
12F
100
AcDbXrecord
280
1
1000
ISO A0
  0
XRECORD
  5
15A
330
12F
100
AcDbXrecord
280
1
1000
841
  0
XRECORD
  5
15B
330
12F
100
AcDbXrecord
280
1
1000
1:1
  0
XRECORD
  5
15C
330
12F
100
AcDbXrecord
280
1
290
1
  0
XRECORD
  5
15D
330
12F
100
AcDbXrecord
280
1
1000
3.7.7
  0
XRECORD
  5
15E
330
12F
100
AcDbXrecord
280
1
 90
4
  0
ENDSEC
  0
EOF
